» » »

Roberts Sam, Dont Walk Away Eileen Tabs (ver.1)

Artists:  A B C D E F G H I J K L M N O P Q R S T U V W X Y Z # 

Dont Walk Away Eileen Tabs (ver.1)

Roberts Sam Tabs
 Rating:
4/5 (4 votes)
Dont Walk Away Eileen lessons Tabs too difficult? Try these video lessons and learn fast
                Don't walk away Eileen
Sam ROberts


all music are in "powerchords", or 5ths.
'G' means palm mute G okay!

   C 'C'                       F      C   'G' 
D--5--5---                     10------------------------------------5                    
A--3--3---                     8------10---5-5-5-3-5-5-5-5-3-5-5-5-5-3-3
E---                           -------8----3-3-3-3-3-3-3-3-3-5-3-3-3-3--
---------------------Dont walk away   Ei  leen
I been waitin for ya since the age of seventeen

   F      C              F      C              F      C
D--10-10--5--5--5--5--5--10-10--5--5--5--5--5--10-10--5--5--5--5--5
A--8--8---3--3--3--3--3--8--8---3--3--3--3--3--8--8---3--3--3--3--3
E------------------------------------------------------

I  hear ya come runnin.. I  hear ya come runnin I hear ya come runnin and I

  F    C   G
D-10--------
A-8----10--5
E------8---3

I lose my  head

I hear ya turn around and I hear ya turn around and I hear ya turn around and I
am left for dead.


G--------5-------5-------5-------5-------4------4-------4-------4
D------3-------3-------3-------3-------3-------3-------3-------3--
A--3-3-----3-3-----3-3-----3-3------------------------------------
E----------------------------------3-3-----3-3-----3-3-----3-3----


And she reads my mind when Im sleepin
And she always arrives when Im leavin
And she's blockin up the sun it seems
your a pacifist with a gun eileen....
            
Submit corrections

comments powered by Disqus
↑ Back to top | Roberts Sam Tabs for Dont Walk Away Eileen. Lyrics for acoustic guitar and electric guitar. Tablatures and chords are parodies/interpretations of the original songs. You may use it for private study, scholarship, research or language learning purposes only