» » »

Let The Four Winds Blow Tabs (ver.1)

Artists:  A B C D E F G H I J K L M N O P Q R S T U V W X Y Z # 

Let The Four Winds Blow Tabs (ver.1)

Robert Plant
Rating:
5/5 (2 votes)

Hard to play? Try these video lessons and learn fast.
                        Let the Four Winds Blow
        Robert Plant and The Strange Sensation
        The Mighty Rearranger

        Standard Tuning

*****Any time you see D/F# just play the F# note***********

        Intro:
    |------------------------------|
    |------------------------------|
    |---5----------5-7p5-----------|  play 2x
    |-------5h7----------7---------|
    |-----7------------------------|
    |------------------------------|

Verse:
      Am        G
And I open my eyes
                      G       Am
As the sun leaves the western sky
          Am     G
Precious memory dies
                   G           Am
Once again you are here at my side

Am        G
Blow wind blow
            G            D/F#  G5    Am
Through my heart let the four winds blow

 And I'm back on the hill, Yes you've gone but you're with me still
|-------------------------------------------------|
|-------------------------------------------------|
|-------------------------------------------------|
|-------------------------------------------------|
|------5h7-5---5----------------5h7-5---5-5h7-----| 
|-/5-8------/8--------------5-8-------8------8\5--|


Now I'm way down the line, Yes you're gone but you're still on my mind
|----------------------------------------------------------------------|
|----------------------------------------------------------------------|
|----------------------------------------------------------------------|
|----------------------------------------------------------------------|
|------5h7-5---5----------------5h7-5---5-5h7-------------------------0| 
|-/5-8------/8--------------5-8-------8------8\5--------------------3--|


Am         G
Blow wind blow
            G             D/F# G5    Am
Through my heart let the four winds blow
           G                                                    Am
I've been walking with strangers and talking all out of my mind
          G                                              Am
While the dogs in the manger, elusive and so hard to find
        G                                          Am
Conversations with angels, I seek the dimensional key
        G                                              E5
I been wheeling and dealing whatever will bring you to me

 " Uh uh uh uh uh uh..."
|----------------------|
|----------------------|
|--5-----5-----5-------|   Play 4x
|-----7-----7-----7----|
|----------------------|
|----------------------|

Am         G
Blow wind blow
            G             D/F# G5    Am
Through my heart let the four winds blow
Am         G
Blow wind blow
            G             D/F# G5    Am
Through my heart let the four winds blow

           G                                                    Am
I've been walking with strangers and talking all out of my mind
          G                                              Am
While the dogs in the manger, elusive and so hard to find
        G                                          Am
Conversations with angels, I seek the dimensional key
        G                                              E5
I been wheeling and dealing whatever will bring you to me

|-------------------|
|-------------------|
|-------------------| Play 2x
|-------------------|
|----------3--0-----|
|-1---0-------------|
then:
|----------0---------|
|----------3---------|
|----------2---------|
|----------0---------|
|--------------------|
|-1---0--------------|

then:
" Uh uh uh uh uh uh..."
|----------------------|
|----------------------|
|--5-----5-----5-------|   Play 4x
|-----7-----7-----7----|
|----------------------|
|----------------------|

Here your just strumming the B and E string in unison
|-000000000000000000000000000000000000000000000000000000000000000000000000000|
|-55555555555555/88888888/10-10-10-10-10-10-10/13-13-13-13-13-13-13/17-17-17-|
|----------------------------------------------------------------------------|
|----------------------------------------------------------------------------|
|----------------------------------------------------------------------------|
|----------------------------------------------------------------------------|

cont'd
|-00000000000000000-17----15----15----15----15----------------|
|-20-20-20-20-20-20-20b---20b---20b---20b---20b---------------|
|-------------------------------------------------------------|
|-------------------------------------------------------------|
|-------------------------------------------------------------|
|-------------------------------------------------------------|

and the rest of the solo ends the song
                THE END
            
Hard to play? Try these video lessons and learn fast. | Correct




comments powered by Disqus
↑ Back to top | Tablatures and chords are parodies/interpretations of the original songs. You may use it for private study, scholarship, research or language learning purposes only