» » »

Simply Irresistible Tabs (ver.1)

Artists:  A B C D E F G H I J K L M N O P Q R S T U V W X Y Z # 

Simply Irresistible Tabs (ver.1)

Robert Palmer
Rating:
5/5 (1 vote)

Hard to play? Try these video lessons and learn fast.
                Simply Irresistible by Robert Palmer

INTRO - palm muted and tremolo picked
e-0000000000000000--|
B-------------------|
G-------------------|
D-------------------|
A-------------------|
E-------------------|

0.08
e--------------------------------|
B--------------------------------|
G------------------------2~--4~--|
D-xx-2-2-2-2-xx-2-2-2-2--2~--4~--|
A-xx-2-2-2-2-xx-2-2-2-2--0~--2~--|
E-xx-0-0-0-0-xx-0-0-0-0----------|

MAIN RIFF
e-----------------------------------------|
B-----------------------------------------|
G---------------------2-2---2----2-2---2--|
D-2-2-2-2--2-2-2-2----2-2---2----2-2---2--|
A-2-2-2-2--2-2-2-2----0-0---0----0-0---0--|
E-0-0-0-0--0-0-0-0--3-----3----3-----3----|

0.41
e-----------------------------------------------|
B-----------------------------------------------|
G-44444444-44444444-22222222-22222222-----------|
D-44444444-44444444-22222222-22222222-55555555--|
A-22222222-22222222-00000000-00000000-55555555--|
E-------------------------------------33333333--|

CHORUS
e------------------------------------|
B------------------------------------|
G-4------------2-2--------2-2--------|
D-4------------2-2-5-4-2--2-2-5-4-2--|
A-2--2-5p2-5/7-0-0-5-4-2--0-0-5-4-2--|
E------------------3-2-0------3-2-0--|

Any corrections please comment
Thanks
            
Hard to play? Try these video lessons and learn fast. | Correct




comments powered by Disqus
↑ Back to top | Tablatures and chords are parodies/interpretations of the original songs. You may use it for private study, scholarship, research or language learning purposes only