» » »

Dakota Tabs (ver.1)

Artists:  A B C D E F G H I J K L M N O P Q R S T U V W X Y Z # 

Dakota Tabs (ver.1)

Robert Francis
Rating:
0/5 (0 votes)

Hard to play? Try these video lessons and learn fast.
                (Intro)
-------------------------------------------------------------------------------
                             Dakota - Robert Francis
-------------------------------------------------------------------------------

This is what I got so far, i can't quite figure out the chorus.
I hope someone can help me out 

Tuning: Standard with Capo on 3

  Am                        F#/Am
e|--------0------------0----------1----------1------|
B|-1--------1--1---------1--1-------0--1-------0----|
G|---2-----------2------------2----------2----------|
D|-----2-----------2------------2----------2--------|
A|-0-----0-----0-----0------------------------------|
E|--------------------------2----------2------------|

   Em                         G
e|---------0------------0-------------3---------3---|
B|-0---------0--0---------0-----0-------0---------0-|
G|---0------------0---------------0-------0---------|
D|-----2------------2-----------------------0-------|
A|--------------------------------------------------|
E|-0-----0------0-----0------/3-----3---3-----3-----|
            
Hard to play? Try these video lessons and learn fast. | Correct




comments powered by Disqus
↑ Back to top | Tablatures and chords are parodies/interpretations of the original songs. You may use it for private study, scholarship, research or language learning purposes only