» » »

Robert De Visee, Suite No 11 For Guitar In Bm - 1 Prelude Tabs (ver.1)

Artists:  A B C D E F G H I J K L M N O P Q R S T U V W X Y Z # 

Suite No 11 For Guitar In Bm - 1 Prelude Tabs (ver.1)

Robert De Visee Tabs
Rating:
0/5 (0 votes)
Suite No 11 For Guitar In Bm - 1 Prelude lessons Tabs too difficult? Try these video lessons and learn fast
                ROBERT DE VISEE : Suite 11 in B Minor

PRELUDE


Along with LH fingering, the following ornaments are included, and you can use
or omit them as you choose.

           X   = trill (starting from upper note.)
           )   = appoggiatura (slur to note from note below.)
           ==  = slur (hammer on or pull off.)


Time Signature = 4/4

Suggested tempo = 76-84 bpm

                                               CII.... CV........  CIV........
      __  ____  _____  ____   ____  ____  ____  ____   ____  ____  ____  ____
       |  |  |  |-| |  |  |   |  |  |  |  |  |  |  |   |  |  |  |  |  |  |  |
||-----2-----2--------------|-------------2--4--5--2-|-7-----------5-----------|
||--------5-----5=3----2----|-0--2--3--5--3-----2----|----------5--------------|
||*-----------------4-----3-|-4-----------4-----2----|----6--7--------4--6--7--|
||*-------------------------|------------------------|-5-----------4-----------|
||--------------------------|------------------------|-------------------------|
||--------------------------|------------------------|-------------------------|
LH:    1  4  1  4 2 3  1  2   3  1  2  4  1  4  4  1   4  2  3  1  2  1  3  4
                                          2     1      1           1
                                          3     1


    CII.......
    ____  ____  ____  ____   ____  ____  ____  _____   ____  ____  ____  ____
    |  |  |  |  |  |  |  |   |  |  |  |  |  |  |. -|   |  |  |  |  |  |  |  |
|---3-----------2--2--3--5-|-------0--2--3--2--0x----|----5--------5--5--7--9--|
|------------2--3----------|-2x-3--2--3--0---------3-|-3-----7-----7-----------|
|------2--4----------------|-2--4--------0-----2-----|----------7--7-----------|
|---2-----------0----------|-------------------------|-0-----------0-----------|
|--------------------------|-------------------------|-------------------------|
|--------------------------|-------------------------|-------------------------|
   2  1   3  1  2  2  4  4   1  2  2  1  3  2  1   3   3  1  4  3  1  1  1  3
   1            3            1  3     2                            4
                                                                   3


               CIV.......      1/2CIV
   ____  ____  ____  ____   ____  ____  ____  ____   ____  ____  _____  _____
   |  |  |  |  |  |  |  |   |  |  |  |  |  |  |  |   |  |  |  |  |-| |  |-| |
|-10--0--2--4--5--4--5--7-|-6x----------------7--7-|-7--5--3--2--2=3-2--2=0----|
|-------------------------|-7--------------7-------|-7-----0-----0----------3--|
|-------------------------|-6----------------------|---------------------------|
|-0-----------------------|-------4----------------|-------------2-------------|
|--------------4----------|----4-----7--5x---------|-6-------------------------|
|-------------------------|------------------------|---------------------------|
  4      1  3  2  1  2  4   2  1  1  4  1  3  4  4   4  1  4  2  2 3 2  2   4  
               1            3                        3           1
                            1                        2

                                                                CII.........
  _____  _____  ____  ____   ____  ____  ____  ____      __  ____  ____
  |-| |  |-| |  |  |  |  |   |  |  |  |  |  |  |  |   |.  |  |  |  |  |   |   
|--------------------------|-0-----2----------------|-------------------|-2---||
|-3=2-----------------2--3-|----2-----2--3-----0----|-0x----------------|-3---||
|-----1--1=3-4--3x-4-------|-------------4----------|-----3--4--------4-|-4---||
|-3-------------4----------|-------------4-----0--2-|-4------------4----|-4---||
|--------------------------|-------1-----2--4-------|-----------2-------|-2---||
|--------------------------|------------------------|-------------------|-----||
  4 2 1  1 4 4  2  4  1  2      3  4  3  2  3     2   3   2  4  1  3  4   
  3             3                  1     4
                                         3
                                         1
            

comments powered by Disqus
↑ Back to top | Robert De Visee Tabs for Suite No 11 For Guitar In Bm - 1 Prelude. Lyrics for acoustic guitar and electric guitar. Tablatures and chords are parodies/interpretations of the original songs. You may use it for private study, scholarship, research or language learning purposes only