» » »

Sin Sin Sin Bass tabs (ver.1)

Artists:  A B C D E F G H I J K L M N O P Q R S T U V W X Y Z # 

Sin Sin Sin Bass tabs (ver.1)

Robbie Williams
Rating:
0/5 (0 votes)

Tabs too difficult? Try these video lessons and learn fast.
                Bassist: Davey Farragher
Tuning: Standard

Bass starts on [1:31]

Verse:

G|----------------------------------------------------------------|
D|----------------------------------------------------------------|
A|--------------------------------8-8-5h8-8-8-5h8-8-8-5h8-8-8-5h8-|
E|8-8-5h8-8-8-5h8-8-8-5h8-8-8-5h8---------------------------------|
                                                                 x4
Pre-chorus:

G|----------------------------------------------------------------|
D|----------------------------------------------------------------|
A|5-5-5-5-5-5-5-5-----------------------------------------------3-|
E|----------------3-3-3-3-3-3-1-1-0-0-0-0-0-0-0-0-1-1-1-1-1-3-5---|

G|----------------------------------------------------------------|
D|----------------------------------------------------------------|
A|5-5-5-5-5-5-3-0-------------0-3-5-5-5-5-5-5-5-5-----------------|
E|----------------3-3-3-3-3-3---------------------3~----------15\-|

Chorus:

G|------------------------------------7-77-5-55-4-44---------------------|
D|----------------3-3-----3-3-2-2-0-0----------------5-55----------------|
A|3-3-----3-3-----------3---------------------------------8-88-7-77-5-55-|
E|----5-3-----5-3-----5--------------------------------------------------|
                                                                        
G|------------------------------------7-77-5-55-4-44---------------------|
D|----------------3-3-3-3-3-3-2-2-0-0----------------5-55----------------|
A|3-3-----3-3---------------------------------------------8-88-7-77-5-55-|
E|----5-3-----5-3--------------------------------------------------------|

Interlude:

G|7--5--4--0~-------------------------|
D|------------------------------------|
A|------------------5--7--8--10~------|
E|------------------------------------|

Chorus:

G|------------------------------------7-77-5-55-4-44---------------------|
D|----------------3-3---3-3-3-2-2-0-0----------------5-55----------------|
A|3-3---3-3-3---3-----5-----------------------------------8-88-7-77-5-55-|
E|----5-------5----------------------------------------------------------|
                                                                        x4
/  slide up
\  slide down
h  hammer-on
p  pull-off
~  let ring
            
Tabs too difficult? Try these video lessons and learn fast.




comments powered by Disqus
↑ Back to top | Tablatures and chords are parodies/interpretations of the original songs. You may use it for private study, scholarship, research or language learning purposes only