» » »

Rock Dj Bass tabs (ver.2)

Artists:  A B C D E F G H I J K L M N O P Q R S T U V W X Y Z # 

Rock Dj Bass tabs (ver.2)

Robbie Williams
Rating:
0/5 (0 votes)

Hard to play? Try these video lessons and learn fast.
                Bassist: Fil Eisler
Tuning: Standard

Intro:

G|--------------------------------|
D|--------------------------------|
A|5-5-5-5-5-5-5-5-5-5-5-5-5-5-5-5-|
E|--------------------------------|

Verse:

G|-------------------------------------------------------------------|
D|7-----5---------7----------------7-----5-----------------5---------|
A|--------5----------------5---------------5-----------------5-------|
E|-----------------------8-------------------------8-----------------|

G|-------------------------------------------------------------------|
D|---------------------------------------7-----------------5---------|
A|5-----5-5-------5--------5-------5-------5-----------------5-------|
E|-----------------------8-------------------------8-----------------|

Chorus:

G|--------------------------------------------7-7-5-5-----|
D|-----------------------5-7--------------------------5---|
A|5--5----5---5--5-5-8-5-----5--5----5---5--5-----------8-|
E|------8---8----------------------8---8------------------| x2

Bridge:

G|--------------------------------|
D|--------------------------------|
A|5-5-5-5-5-5-5-5-5-5-5-5-5-5-5-5-|
E|--------------------------------|

Play verse once again:

Play chorus 4 times:

Interlude:

G|---------------------------------------------------------------------|
D|---------------------------------------------------------------------|
A|5-5-533-----3-345-5-533---543--35-5-533---------3~-------------/15\--|
E|-------33-3------------33-----3--------33-3-3356---------------------|

Play bridge once again

Play chorus part till the end.

/  slide up
\  slide down
h  hammer-on
p  pull-off
~  let ring
            
Hard to play? Try these video lessons and learn fast. | Correct




comments powered by Disqus
↑ Back to top | Tablatures and chords are parodies/interpretations of the original songs. You may use it for private study, scholarship, research or language learning purposes only