>
 >
Old Before I Die

Old Before I Die Bass Tabs

Robbie Williams - Old Before I Die chords, tabs, tablatures, lyrics

Guitar lessons | Add/correct | Request | Top 50 tabs Artists:  A B C D E F G H I J K L M N O P Q R S T U V W X Y Z 0-9

Old Before I Die Bass Tabs – Robbie Williams

CD, Sheet music, Poster

Do you like Old Before I Die? Share with your friends now
Bass TabsBass Tabs v2ChordsTabsUkulele
Bassist: Fil Eisler
Tuning: Standard

Intro:

G|----------------------------|    |----------------------------|
D|/7~-------------7-7--7-5-5--|    |----------7-----------------|
A|----------------------7-7-75|    |------------7-----------5-7-|
E|----------------------------| +  |5--5----5-----5--5----5-----| x2

Verse:

G|----------------------------|    |------------------------------|
D|----------7-----------------|    |------------------------------|
A|------------7-----------5-7-|    |------------------------------|
E|5--5----5-----5--5----5-----| x3 |2--2--2-2-2-2-1-1-1-1-1-3-3-3-|

G|---------------------------------------------------------------|
D|-------------------------------------7-5~----------------------|
A|-----------------------------------7---------------------------|
E|5--5----5-7-5-5--5----5-7-5-5--5-5--------------------------9\-|

Chorus:

G|---------------------------------| |---------------------------------|
D|---------------------------------| |---------------------------------|
A|-----------------55555555--------| |-----------------55555555--------|
E|55555550222222220--------00000002| |55555550222222220--------33333333|

G|---------------------------------| |---------------------------------|
D|---------------------------------| |---------------------------------|
A|-----------------2222222455555542| |-----------------------45~----\--|
E|55555550222222220----------------| |5-5-55755-5-55557-77757----------|

Bridge + Verse: (same as above)

Chorus:

G|--------------------------------| |----------------------------------|
D|--------------------------------| |----------------------------------|
A|------24--------55555555--------| |------24--------5555555-------5---|
E|555555--22222220--------00000000| |555555--22222220-------53333/7-7\3|

G|--------------------------------| |---------------------------------|
D|--------------------------------| |---------------------------------|
A|------24--------2222222455578885| |-----------------------45--555550|
E|555555--22222222----------------| |5-5-55755-5-55557-77757----------|

Solo:

G|-------------------------------------------------------------|
D|-----------------------------4-------------------------------|
A|9999987655555557----------456-6-----------------------7/10--7|
E|----------------55555567-7----b-2-2222023-33333333/710-------|

Pre-chorus:

G|--------------------------------------|
D|----------------------7--------5~-----|
A|---------------------7-----5----------|
E|5-5555555555555555555--3--------------|

Chorus:

G|--------------------------------| |--------------------------------------|
D|--------------------------------| |-------------------------------5------|
A|333333320000000-----------------| |3-333-320-00000-----------5/(8)-85\(3)|
E|---------------01111111133333333| |-----3---------01111111166------------|

G|--------------------------------| |--------------------------------|
D|---------------------------5666-| |-------5-------------------5668\|
A|333333320000000055555557888----8| |3333333-3333333355555557888-----|
E|--------------------------------| |--------------------------------|


G|--------------------------------| |--------------------------------|
D|--------------------------------| |--------------------------------|
A|333333320000000-----------------| |333333320000000----------------5|
E|---------------01111111133333333| |---------------0111111113333333-|

G|--------------------------------| |--------------------------------|
D|----20--------------------------| |----252-------------------------|
A|3333--320000000-----------------| |3-33---30000000-----------------|
E|---------------01111111133333335| |---------------01111111133333333|

G|--------------------------------|
D|--------------------------------|
A|333-33320000000-----------------|
E|---3-----------0111111113333...-|

b  bend
/  slide up
\  slide down
h  hammer-on
p  pull-off
~  let ring





Comments


Popular Robbie Williams tabs & chords
Mack The Knife 2 Bass Tabs
Angels 1 Chords
Angels 8 Chords
Better Man 2 Chords
Bodies 2 Chords
No Regrets Chords
She's The One Chords
Supreme 1 Chords
You Know Me 1 Chords
Nobody Someday Tabs


Song lyrics



↑ Back to top | Tablatures and chords are parodies/interpretations of the original songs. You may use it for private study, scholarship, research or language learning purposes only
© 2014 AZChords.com Contact us | Privacy policy | DMCA | Add/correct tabs | Request tabs | Top 50 tabs