>
 >
Millenium

Millenium Bass Tabs

Robbie Williams - Millenium chords, tabs, tablatures, lyrics

Guitar lessons | Add/correct | Request | Top 50 tabs Artists:  A B C D E F G H I J K L M N O P Q R S T U V W X Y Z 0-9

Millenium Bass Tabs – Robbie Williams

CD, Sheet music, Poster

Do you like Millenium? Share with your friends now
Bass TabsBass Tabs v2ChordsTabsUkulele
Bassist: Fil Eisler
Tuning: Standard


Intro (chorus):

G|------------------------------------------|
D|------------------------------------------|
A|4--4-----------2----4--4-----------24-----|
E|----1h2--2-4--4-4-2-----1h2--2-4--4---4-22|

G|------------------------------------------|
D|------------------------------------------|
A|4--4-----------21---4--4-----------2--4---|
E|----1h2--2-4--4---2-----1h2--2-4--4-2--4--|

Verse:

G|------------------------------------------|
D|------------------------------------------|
A|4--4-----------2----4--4-----------2------|
E|----1h2--2-4--4-4-4-----1h2--2-4--4-4--1--|

G|------------------------------------------|
D|------------------------------------------|
A|4--4-----------2-----4--4-----------------|
E|----1h2--2-4--4-4-2h4----1h2--2-4--242--1-|

G|------------------------------------------|
D|------------------------------------------|
A|4--4-----------21---4--4-----------2----65|
E|----1h2--2-4--4---4-----1h2--2-4--4-4-----|

G|------------------------------------------|
D|------------------------------------------|
A|4--4-----------21---4--4------------------|
E|----1h2--2-4--4---------1h2--2-4\---------|

Chorus:

G|------------------------------------------|
D|------------------------------------------|
A|4--4-----------21---4--4-----------24-----|
E|----1h2--2-4--4---2-----1h2--2-4--4----4--|

G|------------------------------------------|
D|------------------------------------------|
A|4--4-----------2----4--4------------------|
E|----1h2--2-4--4-4-4-----1h2--2-4~---------|

Ok, there are many variations how to play this song
so I hope that You already got it. Now use Your own 
variations based on what You just play.
Only thing You need to know - there's slide on 
A string 4/(16)\ somewhere around 2:28.

() ghost note
/  slide up
\  slide down
h  hammer-on
p  pull-off
~  let ring





Comments


Popular Robbie Williams tabs & chords
Life Thru A Lens Bass Tabs
Me And My Monkey Bass Tabs
Coffee, Tea And Sympathy Chords
Me And My Monkey Chords
Feel Drum Tabs
Angels Tabs
Shes The One Tabs
Jesus In A Camper Van Ukulele
Not Of This Earth Ukulele
Something Beautiful Ukulele


Song lyrics



↑ Back to top | Tablatures and chords are parodies/interpretations of the original songs. You may use it for private study, scholarship, research or language learning purposes only
© 2014 AZChords.com Contact us | Privacy policy | DMCA | Add/correct tabs | Request tabs | Top 50 tabs