>
 >
Lazy Days

Lazy Days Bass Tabs

Robbie Williams - Lazy Days chords, tabs, tablatures, lyrics

Guitar lessons | Add/correct | Request | Top 50 tabs Artists:  A B C D E F G H I J K L M N O P Q R S T U V W X Y Z 0-9

Lazy Days Bass Tabs – Robbie Williams

CD, Sheet music, Poster

Do you like Lazy Days? Share with your friends now
Bass TabsChordsUkulele
Bassist: Fil Eisler
Tuning: Standard

Intro:

G|-----------------------|
D|-------------------85--|
A|8(x32)-8-8-8-8-8-8---88|
E|-----------------------|

Verse:

G|-----------------------------------------------------------------|
D|-----------------------------------------------------------------|
A|6-6-6-6-6/8-8-8\6-6-6-6-6/8-8-8\3-3-3-3-3/8-8-8\3-3-3-3-3/8-8-810|
E|-----------------------------------------------------------------|

G|----------------------------------------------------------------|
D|----------------------------------------------------------------|
A|6-6-6-6-6/8-8-8\6-6-6-6-6/8-8-8\3-3-3-3-3/8-8-8\3-3-3-3-3-3-3-36|
E|----------------------------------------------------------------|

G|----------------------------------------------------------------|
D|----------------------------------------------------------------|
A|------------------------------------------------4-4-4-4-4-4-4-4-|
E|3-3-3-3-3-3-3-3-6-6-6-6-6-6-6-6-3-3-3-3-3-3-3-3-----------------|

G|6---6----------------------------------------------|
D|---------------------------------------------------|
A|--4---4-44-4-6-6-6-8-8-8-8-8-8-8-8-8-8-8-8-8-8---68|
E|-----------------------------------------------68--|

Repeat first three sections and continue with this:

Chorus: (right after first 10 notes)

G|6---6--------------------------------------------------------------|
D|-------------------------------------------------------------------|
A|--4---4-44-4-6-6-6-8-8-8-8-8-8-86----------------------------------|
E|---------------------------------864-4-4-4-4-4-4-4-6-6-6-6-6-6-6-6-|

G|----------------------------------------------------------------|
D|---------------5------------------------------------------------|
A|8-8-8-8-8-8---8-8-8-8-8-8-8-86----------------66----------5-885-|
E|------------68----------------864-4-4-4-4-4-68--6-6-6-6-6------6|

G|--------------------------------------|
D|-------------------6------------------|
A|--------------------------------------|
E|5-----4-4---4-4---4-4--4--4/16161616\-|

G|-----------------------------------------|
D|-----------------------------------------|
A|20-20-18181818171717171515151513-12-10-8-|
E|-----------------------------------------|

Verse:

G|-----------------------------------------------------------------|
D|-----------------------------------------------------------------|
A|6-6-6-6-6/8-8-8\6-6-6-6-6/8-8-8\3-3-3-3-3/8-8-8\3-3-3-3-3/8-8-810|
E|-----------------------------------------------------------------|

G|-----------------------------------------------------------------|
D|-----------------------------------------------------------------|
A|6-6-6-6-6/8-8-8\6-6-6-6-6/8-8-8\3-3-3-3-3/8-8-8\3-3-3-3-3-3-3-810|
E|-----------------------------------------------------------------|

Chorus:
 
G|----------------------------------------------------------------|
D|---------------------------------------------------------------5|
A|8-8-8-8-8-8-86----------------------------------8-8-8-8-8-8---8-|
E|--------------864-4-4-4-4-4-4-4-6-6-6-6-6-6-6-6-------------68--|

G|-------------------------------------------------|
D|-------------------------------------------------|
A|8-8-8-8-8-8-86----------------66----------5-885--|
E|--------------864-4-4-4-4-4-68--6-6-6-6-6------6-|

G|----------------------------------------------------------------|
D|-------------------6--------------------------------------------|
A|--------------------------6-6-6-8-8-8-8-8-8---6-8-8-8-8-8-8-8-8\|
E|5-----4-4---4-4---4-4--4--------------------68------------------|

G|---------------------|
D|---------------------|
A|4-4-4-4-4-4-4-4-4\---|
E|---------------4-----|

Short break....

I'm not sure about variations below - very hard to hear notes there so use
Your own fills if those doesn't seem right.

Ending:

(Time........)

G|------------------|    |-----------------------|
D|------------------|    |-----------------------|
A|8-8-8-8-8-8-8-8h10|    |8-8-8-8-8/202020202020\|
E|------------------| x3 |-----------------------|

G|----------------|----------------|----------------|-----------------------|
D|------------5--5|----------------|----------------|-----------------------|
A|8-8-8-8-8-8---8-|8-8-8-8-8-8\----|8-8-8-8-8-8-8-8-|8-8-8-8-8/202020202020\|
E|----------------|------------1111|----------------|-----------------------|

(Yeah yeah yeah ......)

G|----------------|----------------|----------------|-----------------------|
D|------------55-5|----------------|---------------5|-----------------------|
A|8-8-8-8-8-8---8-|8-8-8-8-8-86---6|8-8-8-8-8-8---8-|8-8-8-8-6/202020201813\|
E|----------------|------------868-|------------68--|-----------------------|

G|----------------|----------------|----------------|-----------------------|
D|----------------|----------------|----------------|-----------------------|
A|8-8-8-8-8-8868-6|8-8-8-8-8-8---6-|8-8-8-8-8-8-8\--|-----------------------|
E|--------------6-|------------68-8|----------------|1~---------------------|

/  slide up
\  slide down
h  hammer-on
p  pull-off
~  let ring





Comments


Popular Robbie Williams tabs & chords
Mr Bojangles Bass Tabs
South Of The Border Bass Tabs
A Place To Crash Chords
Better Man 1 Chords
Rock Dj 2 Chords
Blasphemy Ukulele
Nans Song Ukulele
No Regrets Ukulele
One For My Baby Ukulele
Trouble With Me Ukulele


Song lyrics



↑ Back to top | Tablatures and chords are parodies/interpretations of the original songs. You may use it for private study, scholarship, research or language learning purposes only
© 2014 AZChords.com Contact us | Privacy policy | DMCA | Add/correct tabs | Request tabs | Top 50 tabs