>
 >
King Of Bloke And Bird

King Of Bloke And Bird Bass Tabs

Robbie Williams - King Of Bloke And Bird chords, tabs, tablatures, lyrics

Guitar lessons | Add/correct | Request | Top 50 tabs Artists:  A B C D E F G H I J K L M N O P Q R S T U V W X Y Z 0-9

King Of Bloke And Bird Bass Tabs – Robbie Williams

CD, Sheet music, Poster

Do you like King Of Bloke And Bird? Share with your friends now
Bass TabsChordsUkulele
Bassist: Davey Farragher
Tuning: Standard

Bass starts on [0:42]

G|---------------------------------------|
D|---------------------------------------|
A|---------------------------------------|
E|5~--8~---5~--8~---5~--8~--/(12)~-------|

G|---12-11-------------------------------|
D|12-------14-12-14----12----------------|
A|------------------15----14-15-14-12----|
E|---------------------------------------|

G|------------------------------------------|
D|------------------------------------------|
A|10~--------0~---3~--------3~---0~--2-3~---|
E|------8~-------------3~-------------------|

Verse:

G|------------------------------------------------|
D|------------------------------------------------|
A|7-7---7-7---5-5---5-5---3-3---3-3---3-3---3-3---|
E|------------------------------------------------|

G|------------------------------------------------|
D|------------------------------------------------|
A|7-7---7-7---5-5---5-5---3-3---3-3---3-3---3-3-5-|
E|------------------------------------------------|

G|------------------------------------------------|
D|------------------------------------------------|
A|7-7---7-7---5-5---5-5---3-3---3-3---3-3---3-3---|
E|------------------------------------------------| x2

G|------------------------------------------------------|
D|-----------------5------------------------------------|
A|0---0-0-2-3---/7---7-0-----3------0---0-0--3---3-3--5-|
E|------------------------------------------------------|

G|------------------------------------------------|
D|-------------------------------------------/9-5-|
A|7-7---7-7---5-5---5-5---3-3---3-3---3-3---3-----|
E|------------------------------------------------|

Chorus:

G|------------------------------------------------|
D|------------------------------------------------|
A|------------3-3---3-3---0-0---0-0---3-3---3-3-5-|
E|3-3---3-3---------------------------------------|

G|----------------------------------------------------|
D|----------------------------------------------5-----|
A|------------3-3---3-3---0-0---0-0-2-3-3---3/7---75--|
E|3-3---3-3-----------------------------------------75|

G|------------------------------------------------|
D|------------------------------------------------|
A|------------3-3---3-3-2-0-0---0-0---3-3---3-3-5-|
E|3-3---3-3---------------------------------------|

G|------------------------------------------------|
D|------------------------------------------------|
A|------------3-3---3-3---0-0---0-0-2-3~--------5-|
E|3-3---3-3---------------------------------------|

Ending:

G|--------------------------------------------------------------|
D|-----------------/14-14-14-14-12-12-12---10--10--10--10-------|
A|--------------------------------------------------------------|
E|0~-------------------------------------------------------0~---|

/  slide up
\  slide down
h  hammer-on
p  pull-off
~  let ring





Comments


Popular Robbie Williams tabs & chords
Feel 1 Bass Tabs
Coffee, Tea And Sympathy 1 Chords
Me And My Monkey 1 Chords
Rock Dj 2 Chords
Handsome Man Tabs
Millenium Intro Tabs
Misunderstood Tabs
Something Stupid Tabs
Strong Tabs
King Of Blokes And Birds Ukulele


Song lyrics



↑ Back to top | Tablatures and chords are parodies/interpretations of the original songs. You may use it for private study, scholarship, research or language learning purposes only
© 2014 AZChords.com Contact us | Privacy policy | DMCA | Add/correct tabs | Request tabs | Top 50 tabs