» » »

Robbie Williams, Bodies Bass tabs (ver.1)

Artists:  A B C D E F G H I J K L M N O P Q R S T U V W X Y Z # 

Bodies Bass tabs (ver.1)

Robbie Williams Tabs
Rating:
4/5 (1 vote)
Bodies lessons Tabs too difficult? Try these video lessons and learn fast
                (Intro)
This is is the Intro from to the (first) chorus 


G|------------------|
D|------------------|
A|------------------|
E|--9\2-2202--------|
You have to this again and again, until He begins with singing (00.21)

Intro
G|------------------|
D|------------------|
A|------------------|x4
E|--9\2-2202--------|

G|------------------|
D|------------------|
A|--9\2-2202--------|x3
E|------------------|

G|------------------|
D|------------------|
A|------------------|x4
E|--9\2-2202--------|

G|------------------|
D|------------------|
A|--9\2-2202--------|x3
E|------------------|

Bridge (00.56)
G|-------------------------|
D|-------------------------|
A|-------------------------|
E|---2----0----5----7------|

Chorus (01.06)
G|----------------------------------|
D|----------------------------------|
A|--44--44-567----------------------|x2
E|----------------77--77-22-22------|
            

comments powered by Disqus
↑ Back to top | Robbie Williams Bass for Bodies. Lyrics for acoustic guitar and electric guitar. Tablatures and chords are parodies/interpretations of the original songs. You may use it for private study, scholarship, research or language learning purposes only