» » »

Advertising Space Bass tabs (ver.2)

Artists:  A B C D E F G H I J K L M N O P Q R S T U V W X Y Z # 

Advertising Space Bass tabs (ver.2)

Robbie Williams
Rating:
0/5 (0 votes)

Hard to play? Try these video lessons and learn fast.
                Bassist: Davey Farragher
Tuning: Standard

Not really sure about those dead notes so You can play without them
if You want. Listen song very carefully to get right timing because there
are some tricky moments.

Intro:

G|------------4-5--4----|
D|-----5-\2----------x5-|
A|3---------------------|
E|----------------------| x3

Verse (let ring all notes):

G|---------------------------|------------------------------------|
D|---------------------------|-----------------------3-2-0--------|
A|3---3-------------3--3-----|3---3-----2-3-2--------------3------|
E|------3---3-1---3------3---|------3---------x3-1-------------3--|

Pre-chorus:

G|-------4-5-4\2------------|---------------------------|
D|-----7---------2----------|---------------------------| 
A|---7--------------2/7-7-7-|5----5-7-8-7-5--8---8-8-8\-|
E|5-------------------------|---5---------------8-------|

Chorus:

G|------------4-5--4----|----------------------|
D|-----5-\2--5-------x5-|--/7--5/--------3-----|
A|3---------------------|0---------------------|
E|----------------------|---------3--1-----1-3-|

G|------------4-5--4----|----------------------|
D|-----5-\2--5-------x5-|--/7--5/--------------|
A|3---------------------|0---------------------|
E|----------------------|---------3--1---------|

Verse (let ring all notes):

G|----------------------------|-------------------------------------|
D|----------------------------|-----------------------3-2-0---------|
A|3---3-------------3--/5-----|3---3-----2-3-2--------------3--3----|
E|------3---3-1---3-------3---|------3---------x3-1--------------3--|

Pre-chorus:

G|-------4-5-4\2------------|---------------------------|
D|-----7---------2----------|---------------------------| 
A|---7--------------2/7-7-7-|5----5-7-8-7-5--8--3-------|
E|5-------------------------|---5-----------------1-1-3-|

Chorus:

G|------------4-5--4----|------------------------|
D|-----5-\2----------x5-|--/7--5/----------------|
A|3---------------------|0--------------/8-8-10\-|
E|----------------------|---------3--1-----------|

G|------------4-5--4----|---------------------|
D|-----5-\2--5-------x5-|--/7--5/-------------|
A|3---------------------|0--------------------|
E|----------------------|---------3--1----1/3-|

Bridge:

G|------------4-5--4----|    |------------4-5-4-4---|---------------------|
D|-----5-\2----------x5-|    |-----5-\2--5--------5-|--/7--5/-------------|
A|3---------------------|    |3---------------------|0--------------------|
E|----------------------| x2 |----------------------|---------3--1--------|

Last chorus: 

G|------------4-5--4----|------------------------|
D|-----5-\2----------x5-|--/7--5/----------3-3-5-|
A|3---------------------|0-----------------------|
E|----------------------|---------3--1---1-------|

G|------------4-5--4----|------------------------|
D|-----5-\2--5-------x5-|--/7--5/----------------|
A|3---------------------|0-----------------------|
E|----------------------|---------3--1-----------|

x  dead note
/  slide up
\  slide down
h  hammer-on
p  pull-off
~  let ring
            
Hard to play? Try these video lessons and learn fast. | Correct




comments powered by Disqus
↑ Back to top | Tablatures and chords are parodies/interpretations of the original songs. You may use it for private study, scholarship, research or language learning purposes only