>
 >
Like A Bird Without A Feather 1

Like A Bird Without A Feather 1 Guitar Tabs

Rl Burnside - Like A Bird Without A Feather 1 chords, tabs, tablatures, lyrics

Guitar lessons | Add/correct | Request | Top 50 tabs Artists:  A B C D E F G H I J K L M N O P Q R S T U V W X Y Z 0-9

Like A Bird Without A Feather 1 Guitar Tabs – Rl Burnside

CD, Sheet music, Poster

Do you like Like A Bird Without A Feather 1? Share with your friends now
TabsTabs v2
my version:


e|-----------------------------------------------------------|
B|----------------2bp0------------------2bp0------------3----|
G|--------------------------------------------------1-1-1-1--|
D|-------0------0--------------0------0-------------2-2-2-2--|
A|---0h2----0h2--------2---0h2----0h2--------2------2-2-2-2--|
E|---------------------0---------------------0---------------|


Just like a bird without a feather

e|---3-0---0------------------------------------|
B|-------3--------------------------------------|
G|-----------2b-0-------------------------------|
D|---------------------------2----------2-------|
A|----------------------0-h2-------0-h2---------|
E|----------------0---0----------0--------------|


You know I'm lost without your love

e|-----------------------------------------------------------|
B|----------------2bp0------------------2bp0------------3----|
G|--------------------------------------------------1-1-1-1--|
D|-------0------0--------------0------0-------------2-2-2-2--|
A|---0h2----0h2--------2---0h2----0h2--------2------2-2-2-2--|
E|---------------------0---------------------0---------------|


Just like a bird without a feather

e|---3-0---0------------------------------------|
B|-------3--------------------------------------|
G|-----------2b-0-------------------------------|
D|---------------------------2----------2-------|
A|----------------------0-h2-------0-h2---------|
E|----------------0---0----------0--------------|


You know I'm lost without your love

e|-----------------------------------------------------------|
B|----------------2bp0------------------2bp0------------3----|
G|--------------------------------------------------1-1-1-1--|
D|-------0------0--------------0------0-------------2-2-2-2--|
A|---0h2----0h2--------2---0h2----0h2--------2------2-2-2-2--|
E|---------------------0---------------------0---------------|


You know I need your love

e|-------------------------------|
B|-------------------------------|
G|-------------------------------|
D|------------2----------2-------|
A|-------0-h2-------0-h2---------|
E|-0---0----------0--------------|


Just like the angels need Heaven above

e|---3-0---0-----------------------------------------------------------------|
B|-------3------------------------2bp0------------------2bp0------------3----|
G|-----------2b-0---------------------------------------------------1-1-1-1--|
D|-----------------------0------0--------------0------0-------------2-2-2-2--|
A|-------------------0h2----0h2--------2---0h2----0h2--------2------2-2-2-2--|
E|-------------------------------------0---------------------0---------------|


Well, you know, sure as I shot my baby

e|---3-0---0------------------------------------|
B|-------3--------------------------------------|
G|-----------2b-0-------------------------------|
D|---------------------------2----------2-------|
A|----------------------0-h2-------0-h2---------|
E|----------------0---0----------0--------------|


But I did it because she did me wrong

e|---3b--0---0------------------------------------|
B|---------3---3-0--------------------------------|
G|-----------------3-2-0--------------------------|
D|-----------------------2-0----------------------|
A|---------------------------2/1-0----------------|
E|----------------------------------3b-3b-0-------|

e|-----------------------------------------------------------|
B|----------------2bp0------------------2bp0------------3----|
G|--------------------------------------------------1-1-1-1--|
D|-------0------0--------------0------0-------------2-2-2-2--|
A|---0h2----0h2--------2---0h2----0h2--------2------2-2-2-2--|
E|---------------------0---------------------0---------------|


Well, you know, sure as I shot my baby


But I did it because she did me wrong

e|---3b--0---0------------------------------------|
B|---------3---3-0--------------------------------|
G|-----------------3-2-0--------------------------|
D|-----------------------2-0----------------------|
A|---------------------------2/1-0----------------|
E|----------------------------------3b-3b-0-------|

e|-----------------------------------------------------------|
B|----------------2bp0------------------2bp0------------3----|
G|--------------------------------------------------1-1-1-1--|
D|-------0------0--------------0------0-------------2-2-2-2--|
A|---0h2----0h2--------2---0h2----0h2--------2------2-2-2-2--|
E|---------------------0---------------------0---------------|

Yeah, you know the judge call it murder


Now the penitentiary is my home

e|---3b--0---0------------------------------------|
B|---------3---3-0--------------------------------|
G|-----------------3-2-0--------------------------|
D|-----------------------2-0----------------------|
A|---------------------------2/1-0----------------|
E|----------------------------------3b-3b-0-------|

e|-----------------------------------------------------------|
B|----------------2bp0------------------2bp0------------3----|
G|--------------------------------------------------1-1-1-1--|
D|-------0------0--------------0------0-------------2-2-2-2--|
A|---0h2----0h2--------2---0h2----0h2--------2------2-2-2-2--|
E|---------------------0---------------------0---------------|


Yeah, I loved that woman

Said she didn't love no one but me

e|---3b--0---0------------------------------------|
B|---------3---3-0--------------------------------|
G|-----------------3-2-0--------------------------|
D|-----------------------2-0----------------------|
A|---------------------------2/1-0----------------|
E|----------------------------------3b-3b-0-------|

e|-----------------------------------------------------------|
B|----------------2bp0------------------2bp0------------3----|
G|--------------------------------------------------1-1-1-1--|
D|-------0------0--------------0------0-------------2-2-2-2--|
A|---0h2----0h2--------2---0h2----0h2--------2------2-2-2-2--|
E|---------------------0---------------------0---------------|


Yeah, you know, I love that woman


She said she didn't love no one but me

e|-----------------------------------------------------------|
B|----------------2bp0------------------2bp0------------3----|
G|--------------------------------------------------1-1-1-1--|
D|-------0------0--------------0------0-------------2-2-2-2--|
A|---0h2----0h2--------2---0h2----0h2--------2------2-2-2-2--|
E|---------------------0---------------------0---------------|


Yeah, but I caught my baby cheatin'

Now my home ain't where it used to be   

e|---3b--0---0-------------|
B|---------3---3-0---------|
G|-----------------3-2-0---|
D|-------------------------|
A|-------------------------|
E|-------------------------|

e|---3b--0---0------------------------------------|
B|---------3---3-0--------------------------------|
G|-----------------3-2-0--------------------------|
D|-----------------------2-0--------------0-------|
A|---------------------------2/1-0----------------|
E|----------------------------------3b-3b---------|

e|------------------------|
B|----------------2bp0----|
G|------------------------|
D|-------0------0---------|
A|---0h2----0h2--------2--|
E|---------------------0--|


############################################################


Just like a bird without a feather
You know I'm lost without your love
Just like a bird without a feather
You know I'm lost without your love
You know I need your love
Just like the angels need Heaven above

Well, you know, sure as I shot my baby
But I did it because she did me wrong
Well, you know, sure as I shot my baby
But I did it because she did me wrong
Yeah, you know the judge call it murder
Now the penitentiary is my home

Yeah, I loved that woman
Said she didn't love no one but me
Yeah, you know, I love that woman
She said she didn't love no one but me
Yeah, but I caught my baby cheatin'
Now my home ain't where it used to be   





Comments


Popular Rl Burnside tabs & chords
Bad Luck City Intro Tabs
Goin Down South Tabs
Goin Down South 1 Tabs
Let My Baby Ride Tabs
Let My Baby Ride 1 Tabs
Like A Bird Without A Feather Tabs
Poor Black Mattie Tabs
Rollin Remix Tabs


Song lyrics



↑ Back to top | Tablatures and chords are parodies/interpretations of the original songs. You may use it for private study, scholarship, research or language learning purposes only
© 2014 AZChords.com Contact us | Privacy policy | DMCA | Add/correct tabs | Request tabs | Top 50 tabs