» » »

Snake Tabs (ver.1)

Artists:  A B C D E F G H I J K L M N O P Q R S T U V W X Y Z # 

Snake Tabs (ver.1)

R. Kelly
Rating:
0/5 (0 votes)

Hard to play? Try these video lessons and learn fast.
                R. Kelly - Snake



 
e------------------------------------------------------|
b------------------------------------------------------|
g------------------------------------------------------|
d---9--9----9--9----------------9--9----9--9-----------|
a---9--9----9--9--10-9----------9--9----9--9--10-9-----|
e---7--7----7--7----------------7--7----7--7-----------|

e------------------------------------------------------|
b------------------------------------------------------|
g------------------------------------------------------|
d---9--9----9--9----------------9--9----9--9-----------|
a---9--9----9--9--10-9----------9--9----9--9--10-9-----|
e---7--7----7--7----------------7--7----7--7-----------|

e------------------------------------------------------|
b------------------------------------------------------|
g------------------------------------------------------|
d---9--9----9--9----------------9--9----9--9-----------|
a---9--9----9--9--10-9----------9--9----9--9--10-9-----|
e---7--7----7--7----------------7--7----7--7-----------|

you get the idea...

not perfectly correct, but sounds like it.
            
Hard to play? Try these video lessons and learn fast. | Correct




comments powered by Disqus
↑ Back to top | Tablatures and chords are parodies/interpretations of the original songs. You may use it for private study, scholarship, research or language learning purposes only