» » »

R. Kelly, I Believe I Can Fly Tabs (ver.1)

Artists:  A B C D E F G H I J K L M N O P Q R S T U V W X Y Z # 

I Believe I Can Fly Tabs (ver.1)

R. Kelly Tabs
Rating:
0/5 (0 votes)
I Believe I Can Fly lessons Tabs too difficult? Try these video lessons and learn fast
                Intro (I used to think that I could not go on...)
E--8-8-8-8-8-8--------7-7-7-7-7-7-------|
B--8-8-8-8-8-8--------8-8-8-8-8-8-------|
G--9-9-9-9-9-9--------9-9-9-9-9-9-------|
D---------------------------------------|
A---------------------------------------|
E---------------------------------------|

Chorus part 1 (I believe I can fly...)
E-----------------------------------------------------------------------------|
B-----------------------------------------------------------------------------|
G--5555555555555555-----------------------7777777777777777--------------------|
D--5555555555555555-777777777777777777777-7777777777777777-555555555555555555-|
A--3333333333333333-777777777777777777777-5555555555555555-555555555555555555-|
E-------------------555555555555555555555------------------333333333333333333-|

Chorus pt. 1 cont. (I Believe I can soar...)
E----------------------------------------------------------------------|
B----------------------------------------------------------------------|
G----------------------------------------------------------------------|
D--7777777777777777-6666666666666666-5555555555555555-6666666666666666-|
A--7777777777777777-6666666666666666-5555555555555555-6666666666666666-|
E--5555555555555555-4444444444444444-3333333333333333-4444444444444444-|

Verse (See, I was on the verge of breaking down...)
(AS MUCH AS NEEDED)
E--5~----7~----------------------------------------|
B--5~----7~----------------------------------------|
G--3~----5~----------------------------------------|
D--------------------------------------------------|
A--------------------------------------------------|
E--------------------------------------------------|

Chorus part 1 (I believe I can fly...)
E-----------------------------------------------------------------------------|
B-----------------------------------------------------------------------------|
G--5555555555555555-----------------------7777777777777777--------------------|
D--5555555555555555-777777777777777777777-7777777777777777-555555555555555555-|
A--3333333333333333-777777777777777777777-5555555555555555-555555555555555555-|
E-------------------555555555555555555555------------------333333333333333333-|

Chorus pt. 1 cont. (I Believe I can soar...)
E----------------------------------------------------------------------|
B----------------------------------------------------------------------|
G----------------------------------------------------------------------|
D--7777777777777777-6666666666666666-5555555555555555-6666666666666666-|
A--7777777777777777-6666666666666666-5555555555555555-6666666666666666-|
E--5555555555555555-4444444444444444-3333333333333333-4444444444444444-|

Bridge (Cause I believe in me.)
E---------------------------------------------------------------------|
B---------------------------------------------------------------------|
G------------------7777777777777777-5555555555555555------------------|
D-7777777777777777-7777777777777777-5555555555555555-5555555555555555-|
A-7777777777777777-5555555555555555-3333333333333333-5555555555555555-|
E-5555555555555555-----------------------------------3333333333333333-|


CHORUS PART 2
E---------------------------------------------------------------------|
B---------------------------------------------------------------------|
G-6666666666666666------------------8888888888888888------------------|
D-6666666666666666-8888888888888888-8888888888888888-6666666666666666-|
A-4444444444444444-8888888888888888-6666666666666666-6666666666666666-|
E------------------6666666666666666------------------4444444444444444-|

E---------------------------------------------------------------------|
B---------------------------------------------------------------------|
G---------------------------------------------------------------------|
D-8888888888888888-7777777777777777-6666666666666666-7777777777777777-|
A-8888888888888888-7777777777777777-6666666666666666-7777777777777777-|
E-6666666666666666-5555555555555555-4444444444444444-5555555555555555-|

Outro
E--------------------------------------------------------------|
B--------------------------------------------------------------|
G-----------------------------------8888888888888888-6~----6/--|
D-8888888888888888-6666666666666666-8888888888888888-6~----6/--|
A-8888888888888888-6666666666666666-6666666666666666-4~----4/--|
E-6666666666666666-4444444444444444----------------------------|


The End
=)
            
Submit corrections

comments powered by Disqus
↑ Back to top | R. Kelly Tabs for I Believe I Can Fly. Lyrics for acoustic guitar and electric guitar. Tablatures and chords are parodies/interpretations of the original songs. You may use it for private study, scholarship, research or language learning purposes only