» » »

Secret Agent Man Bass tabs (ver.1)

Artists:  A B C D E F G H I J K L M N O P Q R S T U V W X Y Z # 

Secret Agent Man Bass tabs (ver.1)

Rivers Johnny
Rating:
0/5 (0 votes)

Hard to play? Try these video lessons and learn fast.
                This TAB was written as a Bass Lesson for
understanding the Classic style of Surf/Spy Riffing.

INTRO
|---------------|--------------|---------------|---------------|
|-2--2-----0--0-|-2--2-0-----0-|-2-----0-----0-|-2--2--0-----0-|
|-------2-------|---------2----|----2-----2----|----------2----|
|---------------|--------------|---------------|---------------|

VERSE/CHORUS/BRIDGE is repeated 4 times; then OUTRO

VERSE
|---------------|-----2----2---|---------------|---------------|
|-2--2-----0----|--------------|-2--2------0---|-2--2-0----0---|
|------2-2----2-|-0-0---0----0-|------2-2----2-|---------2---2-|
|---------------|--------------|---------------|---------------|

|---------------|--------------|---------------|---------------|
|-2--2-----0----|-2---2--2-0-2-|---------------|---------------|
|------2-2----2-|--------------|-2--2----------|-2----2---2--0-|
|---------------|--------------|------2--2---2-|---------------|

|---------------|--------------|-2-----2-----2-|-2--2-0------2-|
|-2--2-----0----|-2--2--2-0----|---------2-----|--------2------|
|------2-2----2-|------------2-|---------------|-----------0---|
|---------------|--------------|---------------|---------------|

|---------------|--------------|---------------|---------------|
|-2---2--2---2--|--------------|-2--2-----2----|---------------|
|---------------|-0---0--0---0-|-------2-----2-|---------------|
|---------------|--------------|---------------|--0------------|

CHORUS
|---------------|--------------|---------------|---------------|
|---------------|-2--2---------|---------------|-2----2-----2--|
|--2----2~---2--|--------2-----|-2-----2-----2-|---------2-----|
|---------------|------------0-|----2-----2----|---------------|

|---------------|--------------|---------------|
|---------------|--------------|---------------|
|--3----3----3--|--2--2--2--2--|-2--2-----2----|
|---------------|--------------|-------2-----2-|

GUITAR BRIDGE

|---------------|--------------|---------------|---------------|
|-2--2-----0--0-|-2--2-0-----0-|-2-----0-----0-|-2--2--0-----0-|
|-------2-------|---------2----|----2-----2----|----------2----|
|---------------|--------------|---------------|---------------|

After VERSE/CHORUS/BRIDGE is repeated 4 times...

OUTRO

||---------------------|---------||
||----2----------2-----|-2-2-2-2-||
||---------------------|---------|| 2X
||-0----0-0-0------0---|---------||

|------------|----------|--------|
|------------|--------2-|--------|
|-2-----2----|----------|--------|
|----3-----0-|--0-------|---0----|
            
Hard to play? Try these video lessons and learn fast. | Correct




comments powered by Disqus
↑ Back to top | Tablatures and chords are parodies/interpretations of the original songs. You may use it for private study, scholarship, research or language learning purposes only