» » »

Hinahanap Hanap Kita Bass tabs (ver.2)

Artists:  A B C D E F G H I J K L M N O P Q R S T U V W X Y Z # 

Hinahanap Hanap Kita Bass tabs (ver.2)

Rivermaya
Rating:
0/5 (0 votes)

Hard to play? Try these video lessons and learn fast.
                Rivermaya ang nagcompose nito. 
This isn't 100% correct but it is very very close to the original bassline.


Verses+Chorus
G----------------|
D---5-5-----5----|   G chord for guitar
A------3-5---5---|
E-3-------------5|

G----------------|
D---5-5-----5----| still G for guitar (play this before switching to E)
A------3-5---5---|
E-3--------------|

G----------------------------|
D-2--5--4--------------------|  Em ang chord ng gitara dito
A--------5-------------------|
E-----------0-0-2-2-3-3-7-7-5|

G---------------|
D---7-7-----7---|  Am chord ng guitar
A-------5-7--7--|
E-5------------5|

G---7-7-----7---|
D-------5-7--7--| D guitar chord
A-5------------5|
E---------------|

|babalik  sa G riff pero x1 mo lang gagawin|

G-----------------------------|
D-------------------12---10-9-| eto tutugtugin mo bago magchorus
A-5-7--7-9--9-10-12-----------|
E-----------------------------|

Dun sa solo vocals ni Rico B., ganito...

G------------------------------------------------------------|
D---5---5---4---2------2----------------------5h7p5----------|
A-5-----------------2-------5------------5-------------------|  x1
E--------------------------------5----5--------------6---5---|

tutugtugin mo ang sequence na katulad dun sa verse at chorus except pagdating ng Am, may change:

pagdating ng Am chord,

G---------------------------------------|
D-----------------------------12--10-9--|
A------------5-7--7-9--9-10-12----------|
E--5--5--5------------------------------|

Submitted by VcR
I dedicate this son to Feliche. :)
            
Hard to play? Try these video lessons and learn fast. | Correct




comments powered by Disqus
↑ Back to top | Tablatures and chords are parodies/interpretations of the original songs. You may use it for private study, scholarship, research or language learning purposes only