>
 >
Pressure And Time

Pressure And Time Bass Tabs

Rival Sons - Pressure And Time chords, tabs, tablatures, lyrics

Guitar lessons | Add/correct | Request | Top 50 tabs Artists:  A B C D E F G H I J K L M N O P Q R S T U V W X Y Z 0-9

Pressure And Time Bass Tabs – Rival Sons

CD, Sheet music, Poster

Do you like Pressure And Time? Share with your friends now
Bass TabsChordsTabsTabs v2Ukulele
-------------------------------------------------------------------------------
-------------------------------------------------------------------------------



Tuning: Half-step down


      Intro                                                                        
      S S S S Q    H           S S S S Q    H           S S S S Q    H         
F#||------------------------|------------------------|------------------------|
C#||--------4---------------|--------4---------------|--------4---------------|
G#||------4-----------------|------4-----------------|------4-----------------|
D#||--2-5-------------------|--2-5-------------------|--2-5-------------------|


                               Verse 1                      
  S S S S E  S S Q    Q        S  S S S Q    H         
---------------------------||-------------------------|
--------4------------------||---------4---------------|
------4------4-3-2----0----||-------4-----------------|
--2-5----------------------||--2--5-------------------|


  S S S S Q    Q    S E.     S S S S Q    H           S S S S E  S S Q    Q     
--------------------------|------------------------|---------------------------|
--------4-----------2-4---|--------4---------------|--------4------------------|
------4-------------------|------4-----------------|------4------4-3-2----0----|
--2-5---------------------|--2-5-------------------|--2-5----------------------|


  S S S S Q    H           S S S S Q    E  S S S E  S    S S S S Q    H         
------------------------|-----------------------------|------------------------|
--------4---------------|--------4---------2---2------|--------4---------------|
------4-----------------|------4-------------4---2--0-|------4-----------------|
--2-5-------------------|--2-5------------------------|--2-5-------------------|


                               Pre-chorus 1                                
  S S S S E  S S Q    Q        S  S S S S S S S S S S S S S S S  
---------------------------||-----------------------------------|
--------4------------------||-----------------------------------|
------4------4-3-2----0----||--9----7-9---7-9---7-9---7-9---7-9-|
--2-5----------------------||-----9-----9-----9-----9-----9-----|


  S S S S S S S S S S S S S S S S    S S S S S S S S S S S S S S S S  
----------------------------------|----------------------------------|
----------------------------------|----------------------------------|
----7-9---7-9---7-9---7-9---7-9---|--7-9---7-9---7-9---7-9---7-9---7-|
--9-----9-----9-----9-----9-----9-|------9-----9-----9-----9-----9---|


  S S S S S S S S S S S S S E.     S S S S S S S S S S S S S S S S  
--------------------------------|----------------------------------|
--------------------------------|----------------------------------|
--9---7-9---7-9---9-7-----------|--9---7-9---7-9---7-9---7-9---7-9-|
----9-----9-----9-----9-8-7-5---|----9-----9-----9-----9-----9-----|


  S S S S S S S S S S S S S S S S    S S S S S S S S S S S S S S S S  
----------------------------------|----------------------------------|
----------------------------------|------------------7---------------|
----7-9---7-9---7-9---7-9---7-9---|--7-9---7-9---7-9-----7-9---7-9---|
--9-----9-----9-----9-----9-----9-|------9-----9-------9-----9-----9-|


  S S S S S S S S S S S S S S E     S S S S Q    H         
---------------------------------|------------------------|
---------------------------------|--------4---------------|
--9-7---7---7--------------------|------4-----------------|
------9---9---9-8-7-5-7-5-7-5-5--|--2-5-------------------|


  S S S S Q    E  S S  S E.     S S S S Q    Q    S E.   
-----------------------------|--------------------------|
--------4--------------------|--------4-------------4---|
------4-----------7-4s-2-----|------4-------------------|
--2-5--------------------5---|--2-5---------------------|


                               Verse 2                      
  S S S S E  S S Q    Q        S  S S S Q    H         
---------------------------||-------------------------|
--------4------------------||---------4---------------|
------4------4-3-2----0----||-------4-----------------|
--2-5----------------------||--2--5-------------------|


  S S S S Q    S E   S   S  E.      S S S S Q    E  E   S E.    
---------------------9h-11-11~---|-----------------------------|
--------4--------4/--------------|--------4---------4/---------|
------4--------------------------|------4-----------------9\---|
--2-5----------------------------|--2-5------------------------|


  S S S S S S S S Q    Q       S S S S Q    H           S S S S Q    H         
----------------------------|------------------------|------------------------|
--------4---2---------------|--------4---------------|--------4---------------|
------4-------4-3-2----0----|------4-----------------|------4-----------------|
--2-5-----------------------|--2-5-------------------|--2-5-------------------|


  S S S S Q    H           S S S S E  S S Q    Q     
------------------------|---------------------------||
--------4---------------|--------4------------------||
------4-----------------|------4------4-3-2----0----||
--2-5-------------------|--2-5----------------------||


  Pre-chorus 2                                                                   
  S  S S S S S S S S S S S S S S S    S S S S S S S S S S S S S S S S  
-----------------------------------|----------------------------------|
-----------------------------------|----------------------------------|
--9----7-9---7-9---7-9---7-9---7-9-|----7-9---7-9---7-9---7-9---7-9---|
-----9-----9-----9-----9-----9-----|--9-----9-----9-----9-----9-----9-|


  S S S S S S S S S S S S S S S S    S S S S S S S S S S S S S S S S  
----------------------------------|----------------------------------|
----------------------------------|----------------7-----------------|
--7-9---7-9---7-9---7-9---7-9---7-|--9---7-9---7-9---9-7-------9-9---|
------9-----9-----9-----9-----9---|----9-----9-----------9-7-5-----9-|


  S S S S S S S S S S S S S S S S    S S S S S S S S S S S S S S S S  
----------------------------------|----------------------------------|
----------------------------------|----------------------------------|
--9---7-9---7-9---7-9---7-9---7-9-|----7-9---7-9---7-9---7-9-7-------|
----9-----9-----9-----9-----9-----|--9-----9-----9-----9-------9-8-7-|


  S S S S S S S S S S S S S S S S    S S S S S S S S S S S S S S E    
----------------------------------|----------------------------------|
----------------------------------|----------------------------------|
--9---7-9---7-9---7-9---7-9---7-9-|--5---5---5---5---7---7---7---7\--|
----9-----9-----9-----9-----9-----|----5---5---5---5---7---7---7-----|


  |-3| |--3-| |-3| |--3-| |-3| |--3-| |-3| |--3-|  
  E  S S  S S E  S S  S S E  S S  S S E  S S  S S  
--------------------------------------------------|
--------------------------------------------------|
--9--9-9p-7---9--9-9p-7---9--9-9p-7---9--9-9p-7---|
------------9-----------9-----------9-----------9-|


                                                     Guitar Solo                      
  |-3| |--3-| |-3| |--3-| |--3-| |-3-| |--3-|                              
  E  S S  S S E  S S  S S S  S S S S S S S  S E      S S S S Q    H         
-------------------------------------------------||------------------------|
-------------------------------------------------||--------4---------------|
--9--9-9p-7---9--9-9p-7---9p-7---7---------------||------4-----------------|
------------9-----------9------9---9-8-7-7p-5-7--||--2-5-------------------|


  S S S S Q    E  S S S S S S    S S S S Q    S S S S S S S S  
------------------------------|---------------------2---------|
--------4---------------------|--------4--------2-4---4-4-2---|
------4-----------2-3-4-3-2-0-|------4----------------------4-|
--2-5-------------------------|--2-5--------------------------|


  S S S S S S S S E.  S E.  S    S S S S E.  S S S S S S E.   
------------------------------|------------------------------|
--------4---2-----------------|--------4---------------------|
------4-------4-3-2---2-0-----|------4-------4-7-4-9-9-L-7---|
--2-5-----------------------0-|--2-5-------------------------|


  S S S S E.  S S S S S S E.     S S S S E.  S S S S S   S S S S  
------------------------------|--------------------2-4-4g5-4-2---|
--------4-----------2---------|--------4-------2-4-------------4-|
------4-------0-3-4---4-2-0---|------4-------4-------------------|
--2-5-------------------------|--2-5-----------------------------|


                                 Breakdown                                     
  S S S S S S S S Q    Q         W                    W                 
-----------------------------||--------------------|-------------|
--------4-L-2----------------||--------------------|-------------|
------4-------4-3-2----------||--------------------|-------------|
--2-5------------------5s----||--14----------------|-------------|


  W                   E  S S S S S S S S S S S S S S  
-------------------|---------------------------------|
-------------------|---------------------------------|
-------------------|-----7-9---7-9---7-9---7-9---7-9-|
-------------------|---------9-----9-----9-----9-----|


  S S S S S S S S S S S S S S S S    S S S S S S S S S S S S S S S S  
----------------------------------|----------------------------------|
----------------------------------|----------------------------------|
----7-9---7-9---7-9---7-9---7-9---|--7-9---7-9---7-9---7-9---7-9---7-|
--9-----9-----9-----9-----9-----9-|------9-----9-----9-----9-----9---|


  S S S S S S S S S S S S S S S S    S S S S S S S S S S S S S S S S  
----------------------------------|----------------------------------|
----------------------------------|----------------------------------|
--9---7-9---7-9---7-9---7-9---7-9-|----7-9---7-9---7-9---7-9---7-9---|
----9-----9-----9-----9-----9-----|--9-----9-----9-----9-----9-----9-|


  S S S S S S S S S S S S S S S S    S S S S S S S S S S S S S S S S  
----------------------------------|----------------------------------|
----------------------------------|----------------------------------|
--7-9---7-9---7-9---7-9---7-9---7-|--9---7-9---7-9---7-9---7-9---7-9-|
------9-----9-----9-----9-----9---|----9-----9-----9-----9-----9-----|


  S S S S S S S S S S S S S S S S    S S S S S S S S S S S S S S S S  
----------------------------------|----------------------------------|
----------------------------------|----------------------------------|
----7-9---7-9---7-9---7-9---7-9---|--7-9---7-9---7-9---7-9---7-9---7-|
--9-----9-----9-----9-----9-----9-|------9-----9-----9-----9-----9---|


  S S S S S S S S S S S S S S S S    S S S S S S S S S S S S S S S S  
----------------------------------|----------------------------------|
----------------------------------|----------------------------------|
--9---7-9---7-9---7-9---7-9---7-9-|----7-9---7-9---7-9---7-9---7-9---|
----9-----9-----9-----9-----9-----|--9-----9-----9-----9-----9-----9-|


  S S S S S S S S S S S S S S S S    S S S S S S S S S S S S Q      
----------------------------------|--------------------------------||
------------7-------7-------7-----|--------------------------------||
--7-9---7-9-----7-9-----7-9-----7-|--5-5-5-5-5-5-5-5-7-7-7-7-9\----||
------9-------9-------9-------9---|--------------------------------||


  Outro                                                    
  S S S S Q    Q     Q        S S S S Q    Q    E.  S  
---------------------------|--------------------------|
--------4------------------|--------4-----------------|
------4--------------------|------4-------------------|
--2-5---------------14\----|--2-5-------------------0-|


  S S S S Q    S S S S S E.     S S S S S S S S Q    Q     
-----------------------------|----------------------------|
--------4--------2-2---------|--------4-L-2---------------|
------4--------------4-2-----|------4-------4-3-2---------|
--2-5--------------------5---|--2-5------------------5----|


  S S S S Q    H           S S S S S   E  S S S S S S E.   
------------------------|---------------------------------|
--------4---------------|--------4---4g9--7-L-------------|
------4-----------------|------4--------------9-7---------|
--2-5-------------------|--2-5--------------------9-7-5---|


  S S S S Q    H           S S S S Q    S E.  S E.     Q    Q    H          
------------------------|---------------------------|---------------------||
--------4---------------|--------4------------------|---------------------||
------4-----------------|------4--------------------|---------------------||
--2-5-------------------|--2-5------------7-----5---|-------2-------------||




Duration Legend
---------------
W - whole
H - half
Q - quarter
E - 8th
S - 16th
. - note dotted
|-n-|  - n-tuplets


Tablature Legend
----------------
L - tied note
g - grace note
(n) - ghost note
h - hammer on
p - pull off
s - legato slide
/ -  slide into from below or out of upwards
\ -  slide into from above or out of downwards
~ - vibrato







Comments


Popular Rival Sons tabs & chords
Burn Down Los Angeles Tabs
Get Mine Tabs
I Want More Tabs
Memphis Sun Tabs
Nava Tabs
Pressure And Time Intro Tabs
Wild Animal Tabs
Young Love Tabs
Jordan Ukulele
Pressure And Time Ukulele


Song lyrics



↑ Back to top | Tablatures and chords are parodies/interpretations of the original songs. You may use it for private study, scholarship, research or language learning purposes only
© 2014 AZChords.com Contact us | Privacy policy | DMCA | Add/correct tabs | Request tabs | Top 50 tabs