» » »

Ritchie Valens, We Belong Together Tabs (ver.4)

Artists:  A B C D E F G H I J K L M N O P Q R S T U V W X Y Z # 

We Belong Together Tabs (ver.4)

Ritchie Valens Tabs
Rating:
0/5 (0 votes)
We Belong Together lessons Tabs too difficult? Try these video lessons and learn fast
                               Ritchie Valens we belong together
     belong to me                                        Yes   they
e--------------------------------------------------------------------|
B--------------------------------------------------------------------|
G-----------------------0-------------------------0---0h2-2--0-------|
D------0---2----3----3------3----0---0---2--3------------------------|
A---3--------------------------------------------------------------3-|
E--------------------------------------------------------------------|

        belong                                 To  only  me  For
e--------------------------------------------------------------------|
B--------------------------------------------------------------------|
G-----------------------0-------------------------0---0h2-2--0-------|
D------0---2----3----3------3----0---0---2--3------------------------|
A---3--------------------------------------------------------------3-|
E--------------------------------------------------------------------|

   eternity.
e--------------------------------------------------------------------|
B--------------------------------------------------------------------|
G-----------------------0-1-1h3—--3--3--2--0------2---2--0-----------|
D------0---2----3----3------------------------3-----1----------------|
A---3----------------------------------------------------------------|
E--------------------------------------------------------------------|


    Your my,     my baby                       and you'll
e--------------------------------------------------------------------|
B-------------0-0--4--4------------4-0-0-3-3--------------4—0--------|
G------------------------2—3h4--2-------------4-3h43h4--2------------|
D--------1-----------------------------------------------------------|
A---3-0--------------------------------------------------------------|
E-0------------------------------------------------------------------|

      Alw,   alw,   always be.
e-0--0--------0---------------------------------|
B-0-----0-------------5--3----------------------|
G-1--------1-----3/4--------4--3--2--—--0-------|
D-2--------------------------------2----2-------|
A-2---------------------------------------------|
E-----------------------------------------------|


    I swear by        everything     I own
e-------------------------------------------------------------------|
B---0-0--4--4------------4-0-0-3-3--------------4—0-----------------|
G--------------2—3h4--2-------------4-3h43h4--2---------------------|
D-------------------------------------------------------------------|
A-------------------------------------------------------------------|
E-------------------------------------------------------------------|

    You'll        always,     always be mine
e--------------------------------------------------------------------|
B--------------------------------------------------------------------|
G----------------------—4/5--5--5--3—-3--3--2—-2-—2--0---------------|
D--------------------------------------------------------------------|
A--------1--1--4--4--1-----------------------------------------------|
E-2--2---------------------------------------------------------------|

  Your   mine                  and we belong
e--------------------------------------------------------------------|
B--------------------------------------------------------------------|
G-------0-------------------0--0h2—2--0------------------------------|
D--3--3----3--0—0—2--3-----------------------------------------------|
A-----------------------------------------3--------------------------|
E--------------------------------------------------------------------|

      Together                                        Yes we belong
e--------------------------------------------------------------------|
B--------------------------------------------------------------------|
G-----------------------0-------------------------0---0---2--0-------|
D------0---2----3----3------3----0---0---2--3------------------------|
A---3--------------------------------------------------------------3-|
E--------------------------------------------------------------------|


              Together                   for eter-
e--------------------------------------------------0-----------------|
B--------------------------------------------------1-----------------|
G-----------------------0--------------------------0-----------------|
D------0---2----3----3------3----0---0---2--3------2-----------------|
A---3----------------------------------------------3-----------------|
E--------------------------------------------------------------------|

    Nity        eter…       eternity
e-----1------1-------1------1------0---------|
B-----1------3------3--3----3------0---------|
G-----2------3-----3--------3------1---------|
D-----3------3--------------3------2---------|
A-----3------1--------------1------2---2-----|
E-----1------1--------------1-------------0--|

This tab has been raised for Jam


Esta tab ha sido subido por Jam


Gracias por su atencion
            
Submit corrections

comments powered by Disqus
↑ Back to top | Ritchie Valens Tabs for We Belong Together. Lyrics for acoustic guitar and electric guitar. Tablatures and chords are parodies/interpretations of the original songs. You may use it for private study, scholarship, research or language learning purposes only