» » »

Ritchie Valens, We Belong Together Tabs (ver.3)

Artists:  A B C D E F G H I J K L M N O P Q R S T U V W X Y Z # 

We Belong Together Tabs (ver.3)

Ritchie Valens Tabs
Rating:
5/5 (12 votes)
We Belong Together lessons Tabs too difficult? Try these video lessons and learn fast
                Intro:                 F          Dm         G           C
e-------------------------------------------3--3---------------------------|
b-1h3--3--3--3--------1--1-------3--2-------3--3--------1--1--------1------|
g-----------------2-0-2--2--0-2--2--3-------0--0----0h2p0--0--------2------|
d---------------------3--3-------0--0---2-3-0--0--------2--2---0-2--3------|
a---------------------3--3------------------2--2--------3--3--------3------|
e-------------------------------------------3--3---------------------------|

Verses 1 & 2:           
              F         Dm         G           C
e---------------------------------3--3---------------------------|
b-----------1--1-------3--2-------3--3--------1--1--------1------|
g-----------2--2---0-2-2--3-------0--0---0-2--0--0--------2------|
d-----------3--3-------0--0---2-3-0--0--------2--2---0-2--3------|
a-----------3--3------------------2--2--------3--3--------3------|
e---------------------------------3--3---------------------------|

Bridge:

Bb   Bbm   F
Bb   Bbm  G7    C

Verse 3:     F          Dm         G           C
e---------------------------------3--3---------------------------|
b-----------1--1---0-2-3--2-------3--3--------1--1--------1------|
g-----------2--2-------2--3-------0--0---0-2--0--0--------2------|
d-----------3--3-------0--0---0-2-0--0--------2--2---0-2--3------|
a-----------3--3------------------2--2--------3--3--------3------|
e---------------------------------3--3---------------------------|

End With

e--------------------------|
b---1--------3-------1-----|
g---2--0-2---3--2-0--2-----|
d---3--------3-------3-----|
a---3--------1-------3-----|
e--------------------------|
            
Submit corrections

comments powered by Disqus
↑ Back to top | Ritchie Valens Tabs for We Belong Together. Lyrics for acoustic guitar and electric guitar. Tablatures and chords are parodies/interpretations of the original songs. You may use it for private study, scholarship, research or language learning purposes only