» » »

Sleepwalk Tabs (ver.1)

Artists:  A B C D E F G H I J K L M N O P Q R S T U V W X Y Z # 

Sleepwalk Tabs (ver.1)

Ritchie Valens
Rating:
4/5 (7 votes)

Hard to play? Try these video lessons and learn fast.
                Está rola está muy chida, es di mis favoritas sobre todo en las noches de luna llena
disfrutenla. Esta parte  se puede tocar en estos trastes o si tienen una guitarra con
24 trastes se escucha mejor pero necesita mucha presión:

INTRO

|-----------------|     si tiene              |-15/17/24\20~~~~-|
|--9/11/18\14~~~~-|     una guitarra          |-----------------|
|-----------------|     con 24 trastes        |-----------------|
|-----------------|     se escucha mejor      |-----------------|
|-----------------|     intentalo con la      |-----------------|
|-----------------|     pua sobre los trastes |-----------------|


|--------------|----------------------|----------------------------|
|-12b(13)~~~---|-6-8--9--6--12b(13)---|----------------------------|
|-----------12-|-7-9-10--7---------12-|-10-12-12b(13)-12-10~~b(12)-|
|--------------|----------------------|----------------------------|
|--------------|----------------------|----------------------------|
|--------------|----------------------|----------------------------|


|--------------|----------------------|--------------|--------------|
|--------------|----------------------|-9/11/18\14~~-|--------------|
|-10-12--------|----------------------|--------------|--------------|
|------12-10---|-10-12-12h13-13-12-10-|--------------|-10-10-10--12-|
|-----------12-|----------------------|--------------|-12-12-12--14-|
|--------------|----------------------|--------------|--------------|


|--------------|---------------------|--------------------------------------|
|-12b(13)~~~---|---------------------|-12b(13)------------------------------|
|-----------12-|-10-12-12b(13)-12-10-|--------12-10-12-12b(13)-12-10~~b(12)-|
|--------------|---------------------|--------------------------------------|
|--------------|---------------------|--------------------------------------|
|--------------|---------------------|--------------------------------------|


|--------------|----------------------|--------------|
|--------------|----------------------|--------------|
|-10-12--------|----------------------|--------------|
|------12-10---|-10-12-12h13-13-12-10-|-10-10-10--12-|
|-----------12-|----------------------|-12-12-12--14-|
|--------------|----------------------|--------------|


|-----------12--10--8-----12--10--8-----------------------|
|-9b(11)~~~~-----------9-------------8-8--8-10-----8h9h10-|
|---------------------------------------------------------|
|---------------------------------------------------------|
|---------------------------------------------------------|
|---------------------------------------------------------|


|-------------12--10--8------------------------|  Parte del Bajo
|-9b(11)~~~~-------------8-8---8-11-11---11----|
|-------------------------------------------12-|    |---------|
|----------------------------------------------|    |---------|
|----------------------------------------------|    |---------|
|----------------------------------------------|    |-3-5-7-8-|


|------------|---------------------|--------------------------------------|
|-12b(13)----|---------------------|-12b(13)------------------------------|
|---------12-|-10-12-12b(13)-12-10-|--------12-10-12-12b(13)-12-10~~b(12)-|
|------------|---------------------|--------------------------------------|
|------------|---------------------|--------------------------------------|
|------------|---------------------|--------------------------------------|


|--------------|----------------------|------------------|
|--------------|----------------------|-9/11/18\14~~~~~~-|
|-10-12--------|----------------------|------------------|
|------12-10---|-10-12-12h13-13-12-10-|------------------|
|-----------12-|----------------------|------------------|
|--------------|----------------------|------------------| FIN
            
Hard to play? Try these video lessons and learn fast. | Correct




comments powered by Disqus
↑ Back to top | Tablatures and chords are parodies/interpretations of the original songs. You may use it for private study, scholarship, research or language learning purposes only