» » »

Ooh ! My Head Tabs (ver.1)

Artists:  A B C D E F G H I J K L M N O P Q R S T U V W X Y Z # 

Ooh ! My Head Tabs (ver.1)

Ritchie Valens
Rating:
0/5 (0 votes)

Hard to play? Try these video lessons and learn fast.
                e|-------------------------------------------|
B|-------------------------------------------|
G|-------------------------------------------|
D|--2-2-4-4-2-2-4-4-2-2-4-4-2-2-4-4-2-2-4-4--|
A|--0-0-0-0-0-0-0-0-0-0-0-0-0-0-0-0-0-0-0-0--|
E|-------------------------------------------|

e|----------------------------------------------------|
B|----------------------------------------------------|
G|-2-2-4-4-2-2-4-4-2-2-4-4----------------------------|
D|-0-0-0-0-0-0-0-0-0-0-0-0---2-2-4-4-2-2-4-4-2-2-4-4--|
A|---------------------------0-0-0-0-0-0-0-0-0-0-0-0--|
E|----------------------------------------------------|

e|-------------------------------------|
B|-------------------------------------|
G|------------------2-2-4-4-2-2-4-4-2--|
D|------------------0-0-0-0-0-0-0-0-0--|
A|-2-2-4-4-2-2-4-4---------------------|
E|-0-0-0-0-0-0-0-0---------------------|
            
Well hey hey now now babe,
What is goin on.
Well oh oh oh oh darlin,
I just want for a moment.
They wont need no tutta fruita, no lollipop.
Come on baby just a rock rock rock.

Well na na na na honey,
We goin rock all night.
Well ba ba ba ba babe,
We just goin on fine.
Well a na na na darlin.

Ooh My Head!

e|-------------------------------------------|
B|-------------------------------------------|
G|-------------------------------------------|
D|--2-2-4-4-2-2-4-4-2-2-4-4-2-2-4-4-2-2-4-4--|
A|--0-0-0-0-0-0-0-0-0-0-0-0-0-0-0-0-0-0-0-0--|
E|-------------------------------------------|

e|----------------------------------------------------|
B|----------------------------------------------------|
G|-2-2-4-4-2-2-4-4-2-2-4-4----------------------------|
D|-0-0-0-0-0-0-0-0-0-0-0-0---2-2-4-4-2-2-4-4-2-2-4-4--|
A|---------------------------0-0-0-0-0-0-0-0-0-0-0-0--|
E|----------------------------------------------------|

e|-------------------------------------|
B|-------------------------------------|
G|------------------2-2-4-4-2-2-4-4-2--|
D|------------------0-0-0-0-0-0-0-0-0--|
A|-2-2-4-4-2-2-4-4---------------------|
E|-0-0-0-0-0-0-0-0---------------------|

Well Boney Maroney, Peggy Sue yeah,
They aint goin be around no more.
Wa a didalida darlin,
We just gonna party some more.
Well I I love you darlin.

Ooh My Head!

(Then the solo)
            
Hard to play? Try these video lessons and learn fast. | Correct




comments powered by Disqus
↑ Back to top | Tablatures and chords are parodies/interpretations of the original songs. You may use it for private study, scholarship, research or language learning purposes only