» » »

La Bamba Tabs (ver.3)

Artists:  A B C D E F G H I J K L M N O P Q R S T U V W X Y Z # 

La Bamba Tabs (ver.3)

Ritchie Valens
Rating:
0/5 (0 votes)

Hard to play? Try these video lessons and learn fast.
                repeat this once 
Intro:
|---------------------------------
|---------------------------------
|-------------------2-0-----------
|------------0-2-3----------------
|-----0-2-3-----------------------
|--3------------------------------

repeat through out the song
|-----------------------------------
|-----------------------------------
|----------------------------2-0---
|---0-2-3-3-2-0-----0-2-3--------
|-3----------------3---------------
|-----------------------------------
            
Hard to play? Try these video lessons and learn fast. | Correct




comments powered by Disqus
↑ Back to top | Tablatures and chords are parodies/interpretations of the original songs. You may use it for private study, scholarship, research or language learning purposes only