» » »

La Bamba Tabs (ver.2)

Artists:  A B C D E F G H I J K L M N O P Q R S T U V W X Y Z # 

La Bamba Tabs (ver.2)

Ritchie Valens
Rating:
4/5 (9 votes)

Tabs too difficult? Try these video lessons and learn fast.
                Ill tab fingerpicking and chords...
Enjoy!

         C        F    G7       F
e-------|-------------|-------------------|
B-------|-*-----------|-----------------*-|
G-------|-------0---2-|-0-------3-3-2-0---|
D-------|-----2---3---|-------0-----------|
A---0-2-|-*-3---------|-----2-----------*-|
E-3-----|-------------|---3---------------|

        |---------------|-------------------|
        |-*-------------|-----------------*-|
        |----------2--2-|-4-----4--2--2-----|
        |---2---2--3--3-|-5-----4--3--4-----|
        |-*-3---3-------|-----------------*-|
        |---------------|-------------------|



e-1-1-1--1-1-|-0----|-1-1-1--1-1-|-0---------|
B------------|---1--|------------|---1-1-1-1-|
G------------|------|------------|-----------|
D------------|------|------------|-----------|
A------------|------|------------|-----------|
E------------|------|------------|-----------|

e---------1-0----|-0----|-1-1-1--1-1-|-0---------|
B-3--0-3-------3-|----1-|------------|---1-1-1-1-|
G----------------|------|------------|-----------|
D----------------|------|------------|-----------|
A----------------|------|------------|-----------|
E----------------|------|------------|-----------|

e---------1-0----|-0----|-1-1-1-1-|-0---------|
B-3--0-3-------3-|----1-|---------|---1-1-1-1-|
G----------------|------|---------|-----------|
D----------------|------|---------|-----------|
A----------------|------|---------|-----------|
E----------------|------|---------|-----------|

e--------1-|-0-0-----|---1-1-1--1-1-|-0---|
B-3--0-3---|-----1---|--------------|---1-|
G----------|-------2-|-0------------|-----|
D----------|---------|--------------|-----|
A----------|---------|--------------|-----|
E----------|---------|--------------|-----|

e-1-1-1--1-1-|-0---------|--------1-|-0-0------|
B------------|---1-1-1-1-|-3--0-3---|------1---|
G------------|-----------|----------|--------2-|
D------------|-----------|----------|----------|
A------------|-----------|----------|----------|
E------------|-----------|----------|----------|

e-----|-------|-------|---0----|----------|
B-----|-1-----|-0-----|-*----1-|--3---0-*-|
G-0---|-------|-------|--------|----------|
D-----|-----2-|-----0-|--------|----------|
A-----|-------|-------|-*------|--------*-|
E-----|-------|-------|--------|----------|


Chords:

G7             C     F                     G
Para bailar la bamba        para bailar la bamba 

   F   G7               C       F                 C
Se necesita una poca de gracia        Una poca de gracia 

     F       G7              C     F    G7                C         F
para mi para ti ya ariba ya ariba            Ya ariba ya ariba por ti

G7             C      F     G7                      C     F
sere por ti sere por ti sere          Yo no soy marinero

G7            C           F G7             C        F   G7
Yo no soy marinero  soy capitan  soy capitan   soy capitan

C  F    G7          C  F     G7
Bamba   Bamba       Bamba    Bamba   (repeat the last "bamba,bamba" 
                                      and fade out.)

Thats it!!
            
Tabs too difficult? Try these video lessons and learn fast.


comments powered by Disqus
↑ Back to top | Tablatures and chords are parodies/interpretations of the original songs. You may use it for private study, scholarship, research or language learning purposes only