» » »

La Bamba Bass tabs (ver.1)

Artists:  A B C D E F G H I J K L M N O P Q R S T U V W X Y Z # 

La Bamba Bass tabs (ver.1)

Ritchie Valens
Rating:
1/5 (1 vote)

Hard to play? Try these video lessons and learn fast.
                -------------------------------------------------------------------------------
-------------------------------------------------------------------------------


Tuning: Standard EADG


Intro:
G|--------|--------|
D|--------|-3-2----|
A|-----2-3|-----5-3|
E|-3-5----|--------|

Main Riff Throughout the song

G|-------2------------------|
D|---2-3--5--5-5-5-3-3-2-2--|
A|-3------------------------|
E|--------------------------|



| /  slide up
| \  slide down
| h  hammer-on
| p  pull-off
| ~  vibrato
| +  harmonic
| x  Mute note
===============================================================================
            
Hard to play? Try these video lessons and learn fast. | Correct




comments powered by Disqus
↑ Back to top | Tablatures and chords are parodies/interpretations of the original songs. You may use it for private study, scholarship, research or language learning purposes only