» » »

Ritchie Blackmore, The Village Lantern Tabs (ver.1)

Artists:  A B C D E F G H I J K L M N O P Q R S T U V W X Y Z # 

The Village Lantern Tabs (ver.1)

Ritchie Blackmore Tabs
 Rating:
4/5 (4 votes)
The Village Lantern lessons Tabs too difficult? Try these video lessons and learn fast
1
                              VILLAGE LANTERN - BLACKMORE'S NIGHT

con nosotros, porfavor, registrate y participa en el foro.

This song was ear-transcribed and written in www.deeppurpleforo or 
if you want to help us you can join the forum.


Intro:

E----------------------------------------------------------------|
B--7-9-10--7-10-9--7-5-3-5--3-5-7-5--3-2-0-----------------------|
G-------------------------------------------1-2-4----------------|
D----------------------------------------------------------------|
A----------------------------------------------------------------|
E----------------------------------------------------------------|

E---------------------------------------------------------|
B--10-10-12-14-12-10--15-15-17-14--15-15-17-15-14-12------|
G----------------------------------------------------14---|
D---------------------------------------------------------|
A---------------------------------------------------------|
E---------------------------------------------------------|

E---------------------------------------------------------|
B---------------------------------------------------------|
G---14/16--14h16--13-14-----------------------------------|
D---------------------------------------------------------|
A---------------------------------------------------------|
E---------------------------------------------------------|

Verso 1:

E----------------------------------------------------------|
B--10-10-12-14-12-10--15-15-17-14--15-15-17-15-14-12-------|
G-----------------------------------------------------14---|
D----------------------------------------------------------|
A----------------------------------------------------------|
E----------------------------------------------------------|

E------------------------------------------------------|
B------------------------------------------------------|
G---14-13-14-16----------------------------------------|
D------------------------------------------------------|
A------------------------------------------------------|
E------------------------------------------------------|

Verso 2:
(sin sacar)

Verso 3:

E--------------------------------------------------------------------------|
B--12-12-14-16-14-12--17-17-19-16--17-17-19-17-16-14-----------------------|
G-----------------------------------------------------14-------------------|
D--------------------------------------------------------------------------|
A--------------------------------------------------------------------------|
E--------------------------------------------------------------------------|

E------------------------------------------------------|
B------------------------------------------------------|
G---16-15-16-18----------------------------------------|
D------------------------------------------------------|
A------------------------------------------------------|
E------------------------------------------------------|

Verso 4:
(sin sacar)

Puente:
(sin sacar)

Y la canción sería:

Intro-Verso1-Verso1-Verso2-Verso1-Puente-Verso3-Verso4.

Nota: El verso 2 y el 4 (al igual que el 1 y el 3) son el mismo pero un tono (dos 
más arriba, ya que hay modulación de La mayor a Si Mayor.

------------ o ------------
            
Submit corrections

comments powered by Disqus
↑ Back to top | Ritchie Blackmore Tabs for The Village Lantern. Lyrics for acoustic guitar and electric guitar. 1 Tablatures and chords are parodies/interpretations of the original songs. You may use it for private study, scholarship, research or language learning purposes only