» » »

Stargazer Tabs (ver.1)

Artists:  A B C D E F G H I J K L M N O P Q R S T U V W X Y Z # 

Stargazer Tabs (ver.1)

Ritchie Blackmore
Rating:
1/5 (1 vote)

Hard to play? Try these video lessons and learn fast.
                

-||-------------|----------------|------------|----------------|--------------|
-||-------------|----------------|------------|----------------|--------------|
-||-------------|----------------|------------|----------------|--------------|
-||-------------|---------5---4--|------------|---------5---4--|--------------|
-||--567----567-|---567-----5---5|--567----567|--567------5---5|--------------|
-||0------0-----|-0-----0--------|0------0----|0------0--------|--------------|


-|------------|----------------|------------|---------------|--------------|--|
-|------------|----------------|------------|---------------|--------------|--|
-|------------|----------------|------------|---------------|--------------|--|
-|------------|--------5---4---|------------|--------54-4---|--------------|--|
-|--567---567-|--567-----5---5-|--567---567-|--567567--7--7-|5-5-----------|--|
-|0-----0-----|0-----0---------|0-----0-----|-0-------------|-7--7765-3----|--|


-|-----|---------------|-----------------|-------------|-----------------|----|
-|-----|---------------|-----------------|-------------|-----------------|----|
-|-----|---------------|-----------------|-------------|-----------------|----|
-|-----|---------------|---------5---4---|-------------|--------5---4----|----|
-|-----|---567----567--|--567------5---5-|---567---567-|--567-----5---5--|----|
-|-321-|-0------0------|0------0---------|-0-----0-----|0-----0----------|----|


-|--------------|--------------|-------------|----------|---------------------|
-|--------------|--------------|-------------|----------|---------------------|
-|--------------|--------------|-------------|----------|---------------------|
-|--------------|-------5---4--|-------------|----------|---------------------|
-|---567----567-|---567---5---5|---567---567-|-------3--|---------------------|
-|-0------0-----|-0------------|-0-----0-----|-2-3-5----|---------------------|


-||----------|-----------|-----------|----------|---------||------------------|
-||----------|-----------|-----------|----------|---------||------------------|
-||----------|-----------|-----------|----------|---------||------------------|
-||---9----9-|----9----9-|----9----9-|----9----9|---------||------------------|
-||99---99---|-99----99--|-99---99---|-99---99--|----3-2--||------------------|
-||77---77---|-77----77--|-77---77---|-77---77--|3-5------||------------------|
                                             x 2

-|----------|----------|---------|---------|----------------------------------|
-|----------|----------|---------|---------|----------------------------------|
-|----------|----------|---------|---------|----------------------------------|
-|---7----7-|---7----7-|---5---5-|--5----5-|----------------------------------|
-|77---77---|77---77---|-55--55--|55---55--|----------------------------------|
-|55---55---|55---55---|-33--33--|33---33--|----------------------------------|


-|-----------|------------|---------|------------|-----------------|----------|
-|-----------|------------|---------|------------|-----------------|----------|
-|-----------|------------|---------|------------|-----------------|----------|
-|---7-----7-|----7-----7-|--5----5-|--5---------|-----------------|----------|
-|77----77---|-77----77---|55---55--|55---2-3-5--|----23-5555-5555-|----------|
-|55----55---|-55----55---|33---33--|33----------|3-2--------------|----------|


-|------------------------------|------||-------------------------------------|
-|------------------------------|------||-------------------------------------|
-|------------------------------|------||-------------------------------------|
-|------------------------------|------||-------------------------------------|
-|5555-5555-5555-5555-5555-5555\|------||-------------------------------------|
-|------------------------------|------||-------------------------------------|
                                  1 2 3

-|-------------|------------------|-------------|-------------|-------||------|
-|-------------|------------------|-------------|-------------|-------||------|
-|-------------|------------------|-------------|-------------|-------||------|
-|-------------|----------5---4---|-------------|-------------|-------||------|
-|--567----567-|---567------5---5-|---567---567-|5--5---------|-------||------|
-|0------0-----|-0------0---------|-0-----0-----|--7--7765-3--|-3-2-1-||------|
            
Hard to play? Try these video lessons and learn fast. | Correct




comments powered by Disqus
↑ Back to top | Tablatures and chords are parodies/interpretations of the original songs. You may use it for private study, scholarship, research or language learning purposes only