» » »

Voices Off Camera Tabs (ver.1)

Artists:  A B C D E F G H I J K L M N O P Q R S T U V W X Y Z # 

Voices Off Camera Tabs (ver.1)

Rise Against
Rating:
0/5 (0 votes)

Hard to play? Try these video lessons and learn fast.
                Rise Against: Voices off camera
Tuning: Eb

  This is all played really fast

Eb|----------------------------------------------------------------------------|
Bb|----------------------------------------------------------------------------|
Gb|----------------------------------------------------------------------------|
Db|--------------------------------------------------1--1--2--4~~--------------|
Ab|-6--6--6-2--4--4--1--1--2-1--1--1-2--2--2-4--4--4--22-22-2-4~~--------------|
Eb|--44-44-4-44-44-4--22-22-2-22-22-2-00-00-0-00-00-0---------2~~--------------|
  pm.........................................................

verse 1

  not even but just line them up                        
gtr.1				
Eb|----------------------------------------------------------------------------|
Bb|----------------------------------------------------------------------------|
Gb|-------------------------------------------4444444444-----------------------|
Db|-6666666666----4444444444----2222222222----4444444444----44444444444--------|
Ab|-6666666666----4444444444----2222222222----2222222222----44444444444--------|
Eb|-4444444444----2222222222----0000000000------------------22222222222--------|

gtr.2
Eb|----------------------------------------------------------------------------|
Bb|----------------------------------------------------------------------------|
Gb|----------------------------------------------------------------------------|
Db|-------------------------------------------------------111111-22------------|
Ab|-666666-2222-4444-111111-22-11111111-22222222-44444444-222222-22-44444444---|
Eb|-444444-4444-4444-222222-22-22222222-00000000-00000000-----------22222222---|


Chorus

Eb|----------------------------------------------------------------------------|
Bb|----------------------------------------------------------------------------|
Gb|----------------------------------------------------------------------------|
Db|-999--99-----------999--99-1111-------999-99----------999--99---6-----------|
Ab|-777--66--88--66---777--66--9-9--66---777-66--88-66---777--99---6-----------|
Eb|----------66--44-----------------44-----------66-44--------77---4-----------|


verse 2

gtr.1 just fades out then comes back with feedback

gtr.2
Eb|----------------------------------------------------------------------------|
Bb|----------------------------------------------------------------------------|
Gb|----------------------------------------------------------------------------|
Db|--------------------------------------------------1--1--2--4-44-4-44-4------|
Ab|-6--6--6-2--4--4--1--1--2-1--1--1-2--2--2-4--4--4--22-22-2-4-44-4-44-4------|
Eb|--44-44-4-44-44-4--22-22-2-22-22-2-00-00-0-00-00-0---------2-22-2-22-2------|
  pm.........................................................   ..   ..

....then

gtr.1				
Eb|----------------------------------------------------------------------------|
Bb|----------------------------------------------------------------------------|
Gb|-------------------------------------------4444444444-----------------------|
Db|-6666666666----4444444444----2222222222----4444444444----44444444444--------|
Ab|-6666666666----4444444444----2222222222----2222222222----44444444444--------|
Eb|-4444444444----2222222222----0000000000------------------22222222222--------|

gtr.2
Eb|----------------------------------------------------------------------------|
Bb|----------------------------------------------------------------------------|
Gb|----------------------------------------------------------------------------|
Db|-------------------------------------------------------111111-22------------|
Ab|-666666-2222-4444-111111-22-11111111-22222222-44444444-222222-22-44444444---|
Eb|-444444-4444-4444-222222-22-22222222-00000000-00000000-----------22222222---|


Chorus

Eb|----------------------------------------------------------------------------|
Bb|----------------------------------------------------------------------------|
Gb|----------------------------------------------------------------------------|
Db|-999--99-----------999--99-1111-------999-99----------999-99----6-----------|
Ab|-777--66--88--66---777--66--9-9--66---777-66--88-66---777-99----6-----------|
Eb|----------66--44-----------------44-----------66-44-------77----4-----------|


gtr 1 plays the chorus again alone with words



Eb|----------------------------------------------------------------------------|
Bb|----------------------------------------------------------------------------|
Gb|-------------------------44-------------------------------------------------|x2
Db|-66----------22----------44----------44-------------------------------------|
Ab|-66----------22----------22----------44-------------------------------------|
Eb|-44----------00----------------------22-------------------------------------|




Eb|----------------------------------------------------------------------------|
Bb|----------------------------------------------------------------------------|
Gb|----------------------------------------------------8-999-88----------------|
Db|---------------------66666----------------22222-----8-999-88-9--------------|
Ab|~~~~~pick scratch----66666------1-2-1-----22222-----6-777-66-9--------------|
Eb|---------------------44444----2-------2---00000--------------7--------------|


Chorus

Eb|----------------------------------------------------------------------------|
Bb|----------------------------------------------------------------------------|
Gb|----------------------------------------------------------------------------|
Db|-999--99-----------999--99-1111-------999-99----------999-99----6-----------|
Ab|-777--66--88--66---777--66--9-9--66---777-66--88-66---777-99----6-----------|
Eb|----------66--44-----------------44-----------66-44-------77----4-----------|


ending

gtr.1 plays chorus alone

PLEASE RATE THIS TAB!!!!
            
Hard to play? Try these video lessons and learn fast. | Correct




comments powered by Disqus
↑ Back to top | Tablatures and chords are parodies/interpretations of the original songs. You may use it for private study, scholarship, research or language learning purposes only