» » »

Rise Against, Torches Bass tabs (ver.1)

Artists:  A B C D E F G H I J K L M N O P Q R S T U V W X Y Z # 

Torches Bass tabs (ver.1)

Rise Against Tabs
Rating:
0/5 (0 votes)
Torches lessons Tabs too difficult? Try these video lessons and learn fast
                standard tuning

 = play 16x
# = play 8x

intro
g|-------------------------------------|
d|------------------------9-------4----|
a|----------------------9---9---4---4--|
e|--44----44----44----7-------2--------|

intro/outro
g|-------------------------------------|
d|------------------------9-------4----|
a|----------------------9---9---4---4--|
e|--44444444444444444-7-------2--------|

verse      
g|--------------------------|
d|--------------------------|
a|------2#------------------|
e|--4>------2#--4>--0#--2#--|

chorus
g|-----------------------------------------------------------------|
d|------------------------------------2h4--------------------------|
a|--2-1------4-2-1-------2-1------4-2---------2-1------4-2-1-------|
e|------2-2--------2-4>------2-2----------4>------2-2--------2-4>--|

end of chorus
g|-----------------------------|
d|-----------------------------|
a|--2-1---1h2-4-4-4-4-7>--7/9--|
e|------2----------------------|

bridge
g|------------------------| play without gaps when he sings "lets break this down" 
d|------------------------|
a|---------2---------(2)--| play (2) first time and each alternate time after
e|--44444-----22222--"2"--| play "2" second time and each alternate time after

order:
intro                    x1
intro/outro              x2
verse                    x2
chorus                   x1
end of chorus            x1
verse                    x2
chorus                   x1
end of chorus            x1
bridge                   x8
verse (played slower)    x2
chorus                   x1
end of chorus            x1
intro/outro              x2

end on e|--4--|

if the bit about the bridge confuses you, 
listen to the song and you'll see what i mean.
            

comments powered by Disqus
↑ Back to top | Rise Against Bass for Torches. Lyrics for acoustic guitar and electric guitar. Tablatures and chords are parodies/interpretations of the original songs. You may use it for private study, scholarship, research or language learning purposes only