» » »

Rise Against, The Unraveling Tabs (ver.1)

Artists:  A B C D E F G H I J K L M N O P Q R S T U V W X Y Z # 

The Unraveling Tabs (ver.1)

Rise Against Tabs
 Rating:
4/5 (4 votes)
The Unraveling lessons Tabs too difficult? Try these video lessons and learn fast
                
Bass intro

e|---------------------------------------------------------------------------|
B|--------m------------------------------------------------------------------|
G|--------7------------------------------------------------------------------|
D|--2-----7--x12-------------------------------------------------------------|
A|-2------5------------------------------------------------------------------|
E|---------------------------------------------------------------------------|
          
Verse

e|---------------------------------------------------------------------------|
B|---------------------------------------------------------------------------|
G|--7-5-4--------------------------------------------------------------------|
D|2-7-5-4--------------------------------------------------------------------|
A|2-5-3-2--------------------------------------------------------------------|
E|0--------------------------------------------------------------------------|
  pm x2, play open x2

Pre-Chorus

e|m-m------------------------------------------------------------------------|
B|---------------------------------------------------------------------------|
G|7-9------------------------------------------------------------------------|
D|7-9------------------------------------------------------------------------|
A|5-7------------------------------------------------------------------------|
E|---------------------------------------------------------------------------|

Chorus                       Post Chorus

e|---------------------------------------------------------------------------|
B|---------------------------------------------------------------------------|
G|--5---7--------9-12-14-11----9-12-14-16-14-17-16-14-16-9-------------------|
D|2-5-5-7--------x-x--x--x-----x-x--x--x--x--x--x--x--x--x-------------------|
A|2-3-5-5--------7-10-12-9-----7-10-12-14-12-15-14-12-14-7-------------------|
E|0---3----------------------------------------------------------------------|
    x2    then       x1                     x1

Solo thing

e|---------------------------------------------------------------------------|
B|---------------------------------------------------------------------------|
G|---------------------------------------------------------------------------|
D|---------------------------------------------------------------------------|
A|----------------0--0-2-3-2-5-7-5-7-9-5-7-10-9-7-9-5-2--7--7-9-10-9-7-9-10--|
E|0--0-2-3-2-0-2-------------------------------------------------------------|

e|---------------------------------------------------------------------------|
B|---------------------------------------------------------------------------|
G|-----------------------------v-\-------------------------------------------|
D|9-7-7-9-10-9-7-9-5-7-9-5-7-9-5-7-------------------------------------------|
A|---------------------------------------------------------------------------|
E|---------------------------------------------------------------------------|

Order

intro
verse
pre-chorus
chorus
post chorus
verse
pre-chorus
chorus
post-chorus
Solo
chorus
post chorus x2
            
Submit corrections

comments powered by Disqus
↑ Back to top | Rise Against Tabs for The Unraveling. Lyrics for acoustic guitar and electric guitar. Tablatures and chords are parodies/interpretations of the original songs. You may use it for private study, scholarship, research or language learning purposes only