>
 >
State Of The Union

State Of The Union Guitar Tabs

Rise Against - State Of The Union chords, tabs, tablatures, lyrics

Guitar lessons | Add/correct | Request | Top 50 tabs Artists:  A B C D E F G H I J K L M N O P Q R S T U V W X Y Z 0-9

State Of The Union Guitar Tabs – Rise Against

CD, Sheet music, Poster

Do you like State Of The Union? Share with your friends now
Bass TabsTabsTabs v2Tabs v3Tabs v4Tabs v5Tabs v6
Tuning:  D-A-D-G-B-E

Intro:
e|--------------------------------------------------------------------------|
B|--------------------------------------------------------------------------|
G|--------------------------------------------------------------------------|
D|-1111222233334444---------------------------------------------------------|
A|-1111222233334444---------------------------------------------------------|
E|-1111222233334444---------------------------------------------------------|

pre-verse:
e|--------------------------------------------------------------------------|
B|--------------------------------------------------------------------------|
G|---888------------888------------888--------------------------------------|
D|-1-888-4h66664--1-888-4h66666--1-888-4h66664--1-4-6-7-6-4-1~~1------------|
A|-1-666-4h66664--1-666-4h66666--1-666-4h66664--1-4-6-7-6-4-1~~1------------|
E|-1-----4h66664--1-----4h66666--1-----4h66664--1-4-6-7-6-4-1~~1------------|
pm:                                             . . . . . . 

verse pt1:
e|-----------------------------------------------------------------|
B|-----------------------------------------------------------------|
G|-3-----3-------6666-4-3-----3-------44444-3----------------------|
D|-3-1---3-1---1-6666-4-3-1---3-1---1-44444-3-1--------------------|
A|-1-1---1-1---1-4444-2-1-1---1-1---1-22222-1-1--------------------|
E|---1-----1---1----------1-----1---1---------1--------------------|

verse pt2 (guitar 1):
e|--------------------------------------------------------------------------|
B|--------------------------------------------------------------------------|
G|-3-------6666-4-3-----3---4444444444446666--------------------------------|
D|-3-1---1-6666-4-3-1---3-1-4444444444446666--------------------------------|
A|-1-1---1-4444-2-1-1---1-1-2222222222224444--------------------------------|
E|---1---1----------1-----1-------------------------------------------------|

verse pt2 (guitar 2):
e|--------------------------------------------------------------------------|
B|--------------------------------------------------------------------------|
G|-8------------------------------------------------------------------------|
D|-x-(x a lot, you can hear it if you listen)-------------------------------|
A|-6------------------------------------------------------------------------|
E|--------------------------------------------------------------------------|

chorus:
e|--------------------------------------------------------------------------|
B|--------------------------------------------------------------------------|
G|---888------------888------------888--------------------------------------|
D|-1-888-4h66664--1-888-4h66666--1-888-4h66664--1-4-6-7-6-4-1---------------|
A|-1-666-4h66664--1-666-4h66666--1-666-4h66664--1-4-6-7-6-4-1---------------|
E|-1-----4h66664--1-----4h66666--1-----4h66664--1-4-6-7-6-4-1---------------|
pm:                                             . . . . . . 

pre-bridge:
e|--------------------------------------------------------------------------|
B|--------------------------------------------------------------------------|
G|--------------------------------------------------------------------------|
D|-1-4-6-7-6-4-1-4-6-7-6-4--------------------------------------------------|
A|-1-4-6-7-6-4-1-4-6-7-6-4--------------------------------------------------|
E|-1-4-6-7-6-4-1-4-6-7-6-4--------------------------------------------------|
pm:. . . . . . . . . . . .

bridge pt1: 
e|---------------------------------------------------------------|
B|---------------------------------------------------------------|
G|-----8---------------------------------------------------------|
D|-----8-70060040------------------------------------------------|
A|-----6-70060040-x3---------------------------------------------|
E|-4-1---70060040------------------------------------------------|
pm:       .. .. .    

bridge pt2:
e|---------------------------------------------------------------|
B|---------------------------------------------------------------|
G|---------------------------------------------------------------|
D|-1-4-6-7-6-4---------------------------------------------------|
A|-1-4-6-7-6-4---------------------------------------------------|
E|-1-4-6-7-6-4---------------------------------------------------|
pm:. . . . . . 

End On:
e|--------|
B|--------|
G|--------|
D|-1~-----|
A|-1~-----|
E|-1~-----|

ORDER:
Intro x4
pre-verse x2
verse pt1 x1
verese pt2 x1
chorus x2
verse pt1 x1
verse pt2 x1
chorus x2
pre-bridge x1
bridge pt1 x1
bridge pt2 x1
bridge pt1 x1
bridge pt2 x1
bridge pt1 x1
bridge pt2 x3
End On

| /  slide up
| \  slide down
| h  hammer-on
| p  pull-off
| ~  vibrato
| +  harmonic





Comments


Popular Rise Against tabs & chords
Art Of Losing Bass Tabs
Audience Of One 5 Bass Tabs
Long Forgotten Sons Bass Tabs
Satellite Chords
Worth Dying For 1 Chords
Blood To Bleed 2 Tabs
Chamber The Cartridge 2 Tabs
Injection 1 Tabs
Satellite 2 Tabs
Whereabouts Unknown Intro Tabs


Song lyrics



↑ Back to top | Tablatures and chords are parodies/interpretations of the original songs. You may use it for private study, scholarship, research or language learning purposes only
© 2014 AZChords.com Contact us | Privacy policy | DMCA | Add/correct tabs | Request tabs | Top 50 tabs