>
 >
Sometimes Selling Out Is Giving Up

Sometimes Selling Out Is Giving Up Guitar Tabs

Rise Against - Sometimes Selling Out Is Giving Up chords, tabs, tablatures, lyrics

Guitar lessons | Add/correct | Request | Top 50 tabs Artists:  A B C D E F G H I J K L M N O P Q R S T U V W X Y Z 0-9

Sometimes Selling Out Is Giving Up Guitar Tabs – Rise Against

CD, Sheet music, Poster

Do you like Sometimes Selling Out Is Giving Up? Share with your friends now
Bass TabsTabs
Intro/Verse 1 
e|---------------------------------------------------------------------------| 
B|---------------------------------------------------------------------------| 
G|-6-6--6-6-6--6-6-6--6-----4------------------------------------------------| 
D|-6-6--6-6-6--6-6-6--6-7-2-4------------------------------------------------| 
A|-4-4--4-4-4--4-4-4--4-7-2-2------------------------------------------------| 
E|----------------------5-0--------------------------------------------------| 

Use above riff for: 
Intro - x2 
Verse 1- x4 

Chorus 
e|---------------------------------------------------------------------------| 
B|---------------------------------------------------------------------------| 
G|----------------------6-6--6----------------------6-6--6-------------------| 
D|-7-7--7-9-9--9-6-6--6-6-6--6-7-7--7-9-9--9-6-6--6-6-6--6-------------------| 
A|-7-7--7-9-9--9-6-6--6-4-4--4-7-7--7-9-9--9-6-6--6-4-4--4-------------------| 
E|-5-5--5-7-7--7-4-4--4--------5-5--5-7-7--7-4-4--4--------------------------| 

e|---------------------------------------------------------------------------| 
B|---------------------------------------------------------------------------| 
G|-9-9--9-8-8--8-8-8--8-6-6--6-9-9--9-8-8--8-8--9--8--6----------------------| 
D|-x-x--x-x-x--x-x-x--x-x-x--x-x-x--x-x-x--x-x--x--x--x----------------------| 
A|-7-7--7-6-6--6-6-6--6-4-4--4-7-7--7-6-6--6-6--7--6--4----------------------| 
E|---------------------------------------------------------------------------| 

Verse 2 
Do Verse 2 only 3 times (same as Verse 1) 
e|---------------------------------------------------------------------------| 
B|---------------------------------------------------------------------------| 
G|-6-6--6-6-6--6-6-6--6-----4------------------------------------------------| 
D|-6-6--6-6-6--6-6-6--6-7-2-4------------------------------------------------| 
A|-4-4--4-4-4--4-4-4--4-7-2-2------------------------------------------------| 
E|----------------------5-0--------------------------------------------------| 

Do next part once (just a little pause in the middle) 
e|---------------------------------------------------------------------------| 
B|---------------------------------------------------------------------------| 
G|-6-6--6-6-6--6-6----------4------------------------------------------------| 
D|-6-6--6-6-6--6-6------7-2-4------------------------------------------------| 
A|-4-4--4-4-4--4-4------7-2-2------------------------------------------------| 
E|----------------------5-0--------------------------------------------------| 

Chorus 
e|---------------------------------------------------------------------------| 
B|---------------------------------------------------------------------------| 
G|----------------------6-6--6----------------------6-6--6-------------------| 
D|-7-7--7-9-9--9-6-6--6-6-6--6-7-7--7-9-9--9-6-6--6-6-6--6-------------------| 
A|-7-7--7-9-9--9-6-6--6-4-4--4-7-7--7-9-9--9-6-6--6-4-4--4-------------------| 
E|-5-5--5-7-7--7-4-4--4--------5-5--5-7-7--7-4-4--4--------------------------| 

e|---------------------------------------------------------------------------| 
B|---------------------------------------------------------------------------| 
G|-9-9--9-8-8--8-8-8--8-6-6--6-9-9--9-11-11--11-13-13--13-13-13--------------| 
D|-x-x--x-x-x--x-x-x--x-x-x--x-x-x--x--x--x---x--x--x---x--x--x--------------| 
A|-7-7--7-6-6--6-6-6--6-4-4--4-7-7--7--9--9---9-11-11--11-11-11--------------| 
E|---------------------------------------------------------------------------| 

Solo 
e|---------------------------------------------------------------------------| 
B|------------------------------------------------10-9--7--------------------| 
G|-9-8--6-9-8--6-9-8--6---------------5----9-8--6---------9-8--6-------------| 
D|----------------------7---6--9-6--9----------------------------------------| 
A|---------------------------------------------------------------------------| 
E|---------------------------------------------------------------------------| 

e|-9---7--9--12--9--11-------------------------------------------------------| 
B|---------------------------------------------------------------------------| 
G|---------------------------------------------------------------------------| 
D|---------------------------------------------------------------------------| 
A|---------------------------------------------------------------------------| 
E|---------------------------------------------------------------------------| 

Outro 
e|---------------------------------------------------------------------------| 
B|---------------------------------------------------------------------------| 
G|-x-x-6-----------------------------4-4--4-6-6--4-6-------------------------| 
D|-x-x-6--x-x-7-2-2--2-6-6--6-7-7--7-4-4--4-6-6--4-6-------------------------| 
A|-x-x-4--x-x-7-2-2--2-6-6--6-7-7--7-2-2--2-4-4--2-4-------------------------| 
E|--------x-x-5-0-0--0-4-4--4-5-5--5-----------------------------------------|





Comments


Popular Rise Against tabs & chords
Lanterns Bass Tabs
Reception Fades 3 Bass Tabs
Anywhere But Here Chords
Chamber The Cartridge Intro Tabs
Generation Lost 1 Tabs
Life Less Frightening 3 Tabs
Re-education Through Labor Tabs
Roadside 1 Tabs
Wholl Stop The Rain 1 Tabs
My Life Inside Your Heart Ukulele


Song lyrics



↑ Back to top | Tablatures and chords are parodies/interpretations of the original songs. You may use it for private study, scholarship, research or language learning purposes only
© 2014 AZChords.com Contact us | Privacy policy | DMCA | Add/correct tabs | Request tabs | Top 50 tabs