» » »

Rise Against, Six Ways 'Til Sunday Tabs (ver.1)

Artists:  A B C D E F G H I J K L M N O P Q R S T U V W X Y Z # 

Six Ways 'Til Sunday Tabs (ver.1)

Rise Against Tabs
Rating:
0/5 (0 votes)
Six Ways 'Til Sunday lessons Tabs too difficult? Try these video lessons and learn fast
                Rise Against - Six Ways Til Sunday

Intro 
e|---------------------------------------------------------------------------| 
B|---------------------------------------------------------------------------| 
G|----9----------------------------------------------------------------------| 
D|-2--9-9--------------------------------------------------------------------| 
A|-2--7-9--------------------------------------------------------------------| 
E|-0----7--------------------------------------------------------------------| 

Verse:2x 
e|---------------------------------------------------------------------------| 
B|---------------------------------------------------------------------------| 
G|---------444444------------------------------------------------------------| 
D|-222222--444444--6777777----999999-----------------------------------------| 
A|-222222--222222--6777777----999999-----------------------------------------| 
E|-000000----------4555555----777777-----------------------------------------| 

Guitar 1 chorus:2x 
e|---------------------------------------------------------------------------| 
B|---------------------------------------------------------------------------| 
G|----------------9999-------------------------------------------------------| 
D|----------7777--9999--9999-------------------------------------------------| 
A|-777-666--7777--7777--9999-------------------------------------------------| 
E|-999-777--5555--------7777-------------------------------------------------| 

verse 
e|---------------------------------------------------------------------------| 
B|---------------------------------------------------------------------------| 
G|---------444444------------------------------------------------------------| 
D|-222222--444444--6777777---------------------------------------------------| 
A|-222222--222222--6777777---------------------------------------------------| 
E|-000000----------4555555---------------------------------------------------| 

e|---------------------------------------------------------------------------| 
B|-------palm mute-----------------------------------------------------------| 
G|---9-----------------------------------------------------------------------| 
D|-2-9-9--2222222------------------------------------------------------------| 
A|-2-7-9--2222222------------------------------------------------------------| 
E|-0---7--0000000------------------------------------------------------------| 

outro
e|---------------------------------------------------------------------------| 
B|---------------------------------------------------------------------------| 
G|------4444-----------------------------------------------------------------| 
D|-2222-4444-7777--9999------------------------------------------------------| 
A|-2222-2222-7777--9999------------------------------------------------------| 
E|-0000------5555--7777------------------------------------------------------|
            
Submit corrections

comments powered by Disqus
↑ Back to top | Rise Against Tabs for Six Ways 'Til Sunday. Lyrics for acoustic guitar and electric guitar. Tablatures and chords are parodies/interpretations of the original songs. You may use it for private study, scholarship, research or language learning purposes only