» » »

Rise Against, Rumors Of My Demise Have Been Greatly Exaggerated Tabs (ver.2)

Artists:  A B C D E F G H I J K L M N O P Q R S T U V W X Y Z # 

Rumors Of My Demise Have Been Greatly Exaggerated Tabs (ver.2)

Rise Against Tabs
Rating:
0/5 (0 votes)
Rumors Of My Demise Have Been Greatly Exaggerated lessons Tabs too difficult? Try these video lessons and learn fast
                (Intro)
Tuning: drop d

Main low theme
e|--------------------------------------------------------------------------|
B|--------------------------------------------------------------------------|
G|--------------------------------------------------------------------------|
D|----10-10-8h10p8/3--3-3-6-6-6-8-8-8---------------------------------------|
A|----10-10-8h10p8/3--3-3-6-6-6-8-8-8---------------------------------------|
E|----10-10-8h10p8/3--3-3-6-6-6-8-8-8---------------------------------------|

High 2nd guitar thingy
e|--------------------------------------------------------------------------|
B|--------------------------------------------------------------------------|
G|--12--8--10-12/13/12-8--10---12/13/12-------------------------------------|
D|--------------------------------------------------------------------------|
A|--10--6---8—10/11/10-6--8----10/11/10-------------------------------------|
E|--------------------------------------------------------------------------|

The verse is derived from the main theme

| /  slide up
| \  slide down
| h  hammer-on
| p  pull-off
| ~  vibrato
| +  harmonic
| x  Mute note
            

comments powered by Disqus
↑ Back to top | Rise Against Tabs for Rumors Of My Demise Have Been Greatly Exaggerated. Lyrics for acoustic guitar and electric guitar. Tablatures and chords are parodies/interpretations of the original songs. You may use it for private study, scholarship, research or language learning purposes only