>
 >
Rumors Of My Demise Have Been Greatly Exaggerated

Rumors Of My Demise Have Been Greatly Exaggerated Guitar Tabs

Rise Against - Rumors Of My Demise Have Been Greatly Exaggerated chords, tabs, tablatures, lyrics

Guitar lessons | Add/correct | Request | Top 50 tabs Artists:  A B C D E F G H I J K L M N O P Q R S T U V W X Y Z 0-9

Rumors Of My Demise Have Been Greatly Exaggerated Guitar Tabs – Rise Against

CD, Sheet music, Poster

Do you like Rumors Of My Demise Have Been Greatly Exaggerated? Share with your friends now
Bass TabsChordsTabsTabs v2Tabs v3Tabs v4Tabs v5Ukulele
Ich denke das die Gitarre normal gestimmt ist, kann mich da aber auch teuschen...
Naja... Auf jedenfall hier eines der besten Lieder wo gibt!!!


Intro / Verse (Abgedumpft)

e-----------------------------------------|
H-----------------------------------------|
G-55-3-5-3--------------------------------|
D-55-3-5-3-33-3-3-66-6-6------------------|
A-33-1-3-1-33-3-3-66-6-6------------------|
E----------11-1-1-44-4-4------------------|

Leadpart

e-----------------------------------------|
H-----------------------------------------|
G--12--8--10-121312-8--10---121312--------|
D-----------------------------------------|
A--10--6---8101110-6--8----101110--------|
E-----------------------------------------|

Kehrreim (Teil 1)

e--------------------------------------------|
H--------------------------------------------|
G------------------------------------444444--|
D-666666-333333-666666-333333-666666-444444--|
A-666666-333333-666666-333333-666666-222222--|
E-444444-111111-444444-111111-444444---------|

Kehreim (Teil 2)

e-----------------------------------------|
H-----------------------------------------|
G-88888888-44444444-66666666-22222222-----|
D-88888888-44444444-66666666-22222222-----|
A-66666666-22222222-44444444-00000000-----|
E-----------------------------------------|

Braek

e-----------------------------------------|
H-----------------------------------------|
G-----------------------------------------|
D-3-3---333-3-3---333-6-6---666-8-8---888-| (2x)
A-3-3---333-3-3---333-6-6---666-8-8---888-|
E-1-1---111-1-1---111-4-4---444-6-6---666-|

e-----------------------------------------|
H-----------------------------------------|
G-----------------------------------------|
D-3333333333333333-66666666-88888888------| (2x)
A-3333333333333333-66666666-88888888------|
E-1111111111111111-44444444-66666666------|





Comments


Popular Rise Against tabs & chords
1000 Good Intentions 1 Bass Tabs
Behind Closed Doors 2 Bass Tabs
Whereabouts Unknown Bass Tabs
Hero Of War 1 Chords
Hero Of War 3 Chords
1000 Good Intentions 1 Tabs
6 Ways Til Sunday Tabs
Blood To Bleed 2 Tabs
Collapse 3 Tabs
Hero Of War 1 Tabs


Song lyrics



↑ Back to top | Tablatures and chords are parodies/interpretations of the original songs. You may use it for private study, scholarship, research or language learning purposes only
© 2014 AZChords.com Contact us | Privacy policy | DMCA | Add/correct tabs | Request tabs | Top 50 tabs