» » »

Rumors Of My Demise Have Been Greatly Exaggerated Tabs (ver.1)

Artists:  A B C D E F G H I J K L M N O P Q R S T U V W X Y Z # 

Rumors Of My Demise Have Been Greatly Exaggerated Tabs (ver.1)

Rise Against
Rating:
0/5 (0 votes)

Hard to play? Try these video lessons and learn fast.
                Ich denke das die Gitarre normal gestimmt ist, kann mich da aber auch teuschen...
Naja... Auf jedenfall hier eines der besten Lieder wo gibt!!!


Intro / Verse (Abgedumpft)

e-----------------------------------------|
H-----------------------------------------|
G-55-3-5-3--------------------------------|
D-55-3-5-3-33-3-3-66-6-6------------------|
A-33-1-3-1-33-3-3-66-6-6------------------|
E----------11-1-1-44-4-4------------------|

Leadpart

e-----------------------------------------|
H-----------------------------------------|
G--12--8--10-121312-8--10---121312--------|
D-----------------------------------------|
A--10--6---8—101110-6--8----101110--------|
E-----------------------------------------|

Kehrreim (Teil 1)

e--------------------------------------------|
H--------------------------------------------|
G------------------------------------444444--|
D-666666-333333-666666-333333-666666-444444--|
A-666666-333333-666666-333333-666666-222222--|
E-444444-111111-444444-111111-444444---------|

Kehreim (Teil 2)

e-----------------------------------------|
H-----------------------------------------|
G-88888888-44444444-66666666-22222222-----|
D-88888888-44444444-66666666-22222222-----|
A-66666666-22222222-44444444-00000000-----|
E-----------------------------------------|

Braek

e-----------------------------------------|
H-----------------------------------------|
G-----------------------------------------|
D-3-3---333-3-3---333-6-6---666-8-8---888-| (2x)
A-3-3---333-3-3---333-6-6---666-8-8---888-|
E-1-1---111-1-1---111-4-4---444-6-6---666-|

e-----------------------------------------|
H-----------------------------------------|
G-----------------------------------------|
D-3333333333333333-66666666-88888888------| (2x)
A-3333333333333333-66666666-88888888------|
E-1111111111111111-44444444-66666666------|
            
Hard to play? Try these video lessons and learn fast. | Correct




comments powered by Disqus
↑ Back to top | Tablatures and chords are parodies/interpretations of the original songs. You may use it for private study, scholarship, research or language learning purposes only