» » »

Rise Against, Ready To Fall Tabs (ver.3)

Artists:  A B C D E F G H I J K L M N O P Q R S T U V W X Y Z # 

Ready To Fall Tabs (ver.3)

Rise Against Tabs
Rating:
0/5 (0 votes)
Ready To Fall lessons Tabs too difficult? Try these video lessons and learn fast
                Ready to fall-rise against


S=slide
X= not played


          GUITAR 1

RIFF A

Play this 2 times

All muted                 e]------------------------------------------------]
B]--------------------------------------------------------------------------]
G]--------------------------------------------------------------------------]
D]—6-6-6-6------------------------------------------------------------------]
A]—4-4-4-4---4-4-4-4---7-7-7-7-7-7-7-7--------------------------------------]
E]-----------2-2-2-2---5-5-5-5-5-5-5-5--------------------------------------]

                              6
On 2nd time,         is       7    and not muted
                7             7
                5             5

RIFF B
Then play this 3 times
e]----------------------------------------------]
B]----------------------------------------------]
G]—6-6-6-6--------------------------------------]
D]—6-6-6-6---4-4-4-4---7-7-7-7-7-7-7-7----------]
A]—4-4-4-4---4-4-4-4---7-7-7-7-7-7-7-7----------]
E]-----------2-2-2-2---5-5-5-5-5-5-5-5----------]


GUITAR 2

When guitar one starts playing RIFF B the third time, guitar 2 starts playing
     3 times
e]-------------------]
B]-------------------]
G]—6-6-6-4-4s6-------]
D]—6-6-6-4-4s6-------]
A]—4-4-4-2-2s4-------]
E]-------------------]
Then both guitars play


e]---------------------------------------------------------]
B]---------------------------------------------------------]
G]-8-8-8-8---9-9-9-9---11-11-11-11----9-9-9-9--------------]
D]—x-x-x-x---x-x-x-x—-—-x--x--x--x----x-x-x-x--------------]
A]—6-6-6-6—--7-7-7-7—---9-—9-—9—-9-—--7-7-7-7--------------]
E]---------------------------------------------------------]


VERSE

                                       Pick slide
                                            v
e]-------0---4---0----------------------------------4—0-4-0-7--]
B]-----2-------------------2—4-0-0-2---------------------------]
G]—1-----------------------------------------------------------]
D]-------------------------------------------------------------]
A]-------------------------------------------------------------]
E]-------------------------------------------------------------]

e]-----------------4----0----0----7-]
B]-------------------------2--------]
G]---6---8---9----------------------]
D]—--X—--X---X----------------------]
A]—--4---6---7----------------------]
E]----------------------------------]


PRE-CHORUS

GUITAR 1

e]--------------------------------------------------------------------------]
B]--------------------------------------------------------------------------]
G]--------------------------------------------------------------------------]
D]-7-7-7-7-7-7-7-7-6-6-6-6-6-6-6-6-7-7-7-7-7-7-7-7-9-9-9-9-9-9-9-9----------]
A]-7-7-7-7-7-7-7-7-6-6-6-6-6-6-6-6-7-7-7-7-7-7-7-7-9-9-9-9-9-9-9-9----------]
E]-5-5-5-5-5-5-5-5-4-4-4-4-4-4-4-4-5-5-5-5-5-5-5-5-7-7-7-7-7-7-7-7----------]


GUITAR 2
           3 TIMES
E]-------------------------------------------]
B]-------------------------------------------]
G]-9-9-9-9-9-9-9-9-8-8-8-8-8-6-6-6-----------]
D]-X-X-X-X-X-X-X-X-X-X-X-X-X-X-X-X-----------]
A]-7-7-7-7-7-7-7-7-6-6-6-6-4-4-4-4-----------]
E]-------------------------------------------]

E] --------------------------------------------------------]
B]---------------------------------------------------------]
G] 9-9-9-9-9-9-9-9-11-11-11-11-11-11—11-11-----------------]
D]-9-9-9-9-9-9-9-9-11-11-11-11-11-11—11-11-----------------]
A]-7-7-7-7-7-7-7-7--9—-9-—9—-9-—9-—9-—9-—9-----------------]
E]---------------------------------------------------------]

CHORUS


        GUITAR 1


RIFF A
Then play this 3 times
e]----------------------------------------------]
B]----------------------------------------------]
G]—6-6-6-6--------------------------------------]
D]—6-6-6-6---4-4-4-4---7-7-7-7-7-7-7-7----------]
A]—4-4-4-4---4-4-4-4---7-7-7-7-7-7-7-7----------]
E]-----------2-2-2-2---5-5-5-5-5-5-5-5----------]


GUITAR 2

When guitar one starts playing RIFF A the third time, guitar 2 starts playing
     3 times
e]--------------------]
B]--------------------]
G]—6-6-6-4-4-S6-------]
D]—6-6-6-4-4-S6-------]
A]—4-4-4-2-2-S4-------]
E]--------------------]


Then both guitars play


e]---------------------------------------------------------]
B]---------------------------------------------------------]
G]-8-8-8-8---9-9-9-9---11-11-11-11--9-9-9-9----------------]
D]—x-x-x-x---x-x-x-x--—x—-x--x--x-—-x-x-x-x----------------]
A]—6-6-6-6--—7-7-7-7—--9—-9—-9—-9-—-7-7-7-7----------------]
E]---------------------------------------------------------]

Im not going to put the verse and chorus again because it will make the tab too long. Il 
down the order at the end.

Now the bridge

GUITAR 1

RIFF A
                            4 TIMES
e]------------------------------------------------------------------]
B]------------------------------------------------------------------]
G]-4-4-4-4-4-4-4-4-4-4-4-4-4-4-4-4-2-2-2-2-2-2-2-2-2-2-2-2-2-2-2-2--]
D]-4-4-4-4-4-4-4-4-4-4-4-4-4-4-4-4-2-2-2-2-2-2-2-2-2-2-2-2-2-2-2-2--]
A]-2-2-2-2-2-2-2-2-2-2-2-2-2-2-2-2-0-0-0-0-0-0-0-0-0-0-0-0-0-0-0-0--]
E]------------------------------------------------------------------]

RIFF B

Muted        4 TIMES
e]-----------------------------------------]
B]-----------------------------------------]
G]---------8-8-8-8-9-9-9-9-9-9-9-9---------]
D]-6-6-6-6-6-6-6-6-7-7-7-7-7-7-7-7---------]
A]-4-4-4-4---------------------------------]
E]-----------------------------------------]

GUITAR 2

When GUITAR 1 plays RIFF B, you play this, sort of back up a few times


e---------------]
B---------------]
G-7-7-7-7-------]
D-x-x-x-x-------]
A-4-4-4-4-------]
E---------------]

Alright, thats it. Here is the order


Intro
Verse
Pre chorus
Chorus
Verse
Pre chorus
Chorus
Bridge
Chorus 3 times(all without guitar 2)
            
Submit corrections

comments powered by Disqus
↑ Back to top | Rise Against Tabs for Ready To Fall. Lyrics for acoustic guitar and electric guitar. Tablatures and chords are parodies/interpretations of the original songs. You may use it for private study, scholarship, research or language learning purposes only