» » »

Rise Against, Paper Wings Tabs (ver.1)

Artists:  A B C D E F G H I J K L M N O P Q R S T U V W X Y Z # 

Paper Wings Tabs (ver.1)

Rise Against Tabs
Rating:
0/5 (0 votes)
Paper Wings lessons Tabs too difficult? Try these video lessons and learn fast
                
Tune down 1/2 step.

Intro/Chorus Rhythm
|-----------------------------------------------------------------------------------------------------------------|
|-----------------------------------------------------------------------------------------------------------------|
|-9-9--9--9-9-9-9-9--9--9-9-9---------------8-8--8--8-8-8-6-6--6--6-6-6-6-6--6--6-6-6-----------------------------|
|-9-9--9--9-9-9-9-9--9--9-9-9-9-9--9--9-9-9-6-6--6--6-6-6-6-6--6--6-6-6-6-6--6--6-6-6-7-7--7--7-7-7-7-7--7--7-7-7-|
|-7-7--7--7-7-7-7-7--7--7-7-7-6-6--6--6-6-6---------------4-4--4--4-4-4-4-4--4--4-4-4-7-7--7--7-7-7-7-7--7--7-7-7-|
|-------------------------------------------------------------------------------------5-5--5--5-5-5-5-5--5--5-5-5-|

Intro/CHorus Lead (all played on top Eb string)
|-x-x-7-x-x-5-x-x-4-x-x-5-x-x-4--x-x-7-x-x-5-x-x-9-x-x-9-x-x-9-x-|

|-x-x-5-x-x-4-x-x-2-x-x-4-x-x-2--x-x-2-x-x-0-x-x-4-x-x-2-x-x-0---|

Verse
|---------------------------------|---------------------------|
|---------------------------------|---------------------------|
|-6--6--(9)-(9)-(9)---------------|---------------------------|
|-6--6--------------2--2--2-2-2-2-|-9--9--9-11--7--7--7-7-7-7-|
|-4--4--(7)-(7)-(7)-2--2--2-2-2-2-|-9--9--9-11--7--7--7-7-7-7-|
|-------------------0--0--0-0-0-0-|-7--7--7-9---5--5--5-5-5-5-|
(7)= played on second guitar, on 3rd and 4th repeats only.

Pre-Chorus
|----------------------------------------------|-----------------|------|
|----------------------------------------------|-----------------|------|
|----------------------------------------------|-----------------|------|
|-9--9-9-9-9-9-9-9-9-9-9-9-9-6--7--7-7-7-7-7-7-|-7-7-7-7-7-7-7-7-|-9----|
|-9--9-9-9-9-9-9-9-9-9-9-9-9-6--7--7-7-7-7-7-7-|-7-7-7-7-7-7-7-7-|-9----|
|-7--7-7-7-7-7-7-7-7-7-7-7-7-4--5--5-5-5-5-5-5-|-5-5-5-5-5-5-5-5-|-7----|


Solo (this should be pretty accurate, but there are bound to be mistakes here and there)
|-0--0-0-2b-p0---0---0-0-0-2b-p0---0---0-0-0-2b-p0---0--0-0-0---------|
|--------------4-----------------4-----------------4----------4-4-4-4-|
|---------------------------------------------------------------------|
|---------------------------------------------------------------------|
|---------------------------------------------------------------------|
|---------------------------------------------------------------------|

|7-------0h2h4-0h2h4-0h2h4-0h2h4-0h2h4-0h2h4-5--5-5-4-4-4-7--7-7-7-7-7-7-7-|
|0---0---------------------------------------5--5-5-5-5-5-5--5-5-5-5-5-5-5-|
|--------------------------------------------------------------------------|
|--------------------------------------------------------------------------|
|--------------------------------------------------------------------------|
|--------------------------------------------------------------------------|

|-0--0-0-2b-p0---------0-2b-p0---0--0-0-0-0-0-0----------------0---|
|--------------4-4---4---------4----0-0-0-0-0-0-4--4-4-4-4-4-4-0---|
|-----------------------------------------------4--4-4-4-4-4-4-----|
|------------------------------------------------------------------|
|------------------------------------------------------------------|
|------------------------------------------------------------------|

|-7-0-0-5-0-0-4-0-7-0-0-5-0-0-4-0-4-5-4-7--7-7-7-7-7-7-7-4-5-4-0----|
|---------------------------------------5--5-5-5-5-5-5-5-------0----|
|-------------------------------------------------------------------|
|-------------------------------------------------------------------|
|-------------------------------------------------------------------|
|-------------------------------------------------------------------|
            
Submit corrections

comments powered by Disqus
↑ Back to top | Rise Against Tabs for Paper Wings. Lyrics for acoustic guitar and electric guitar. Tablatures and chords are parodies/interpretations of the original songs. You may use it for private study, scholarship, research or language learning purposes only