» » »

Rise Against, One Thousand Good Intentions Bass tabs (ver.1)

Artists:  A B C D E F G H I J K L M N O P Q R S T U V W X Y Z # 

One Thousand Good Intentions Bass tabs (ver.1)

Rise Against Tabs
 Rating:
4/5 (4 votes)
One Thousand Good Intentions lessons Tabs too difficult? Try these video lessons and learn fast
1
                
Ok I Love this band and I am not a true bassist. I am a singer but I love to play bass on my own time. I tabbed this out a while ago and I have seen it tabbed incorrectly. This is what I have heard. The only part I am not positive on is the last part of the chorus. 

Intro / Verse
G|-------------------------------------------------------------------|
D|-------------------------------------------------------------------|
A|-------------------------------------------------------------------|
E|-0-0-7-7-5-5-7-7-8-8-7-7-5-5-3-3-0-0-7-7-5-5-7-7-8-8-10-10-8-8-7---|

G|-------------------------------------------------------------------|
D|-------------------------------------------------------------------|
A|-------------------------------------------------------------------|    
E|-0-0-7-7-5-5-7-7-8-8-7-7-5-5-3-3-2-2-0-0-2-2-0-0-7-7-5-5-3-3-2-2---|

Chorus   *=8x   ^=16x
G|------------------------------------------------|
D|------------------------------------------------|
A|--------7^-----*-----7*/17-17-15-15-13-13-12-12-|
E|-8*--5*-------8*--5*----------------------------|

End of Chorus
G|-----------------------------|
D|-----------------------------|
A|--------7*----7-—7-----------|
E|-8*--5*----00------8-8*--5*-3|

Bridge 1
G----------------------------------------------------|
D----------------------------------------------------|
A----------------------------------------------------|
E-0*-8-8-8-8-5-5-5-5-0*-8-8-8-8-10-10-10-10----------|

Bridge 2    *=4x
G|-----------------------------|
D|-----------------------------|
A|-----------------------------|
E|-0*-8*-5*-3*-0*-8*-5*-10*----|

Listen to figure out the order and timing. Black and Red Unite!!
            
Submit corrections

comments powered by Disqus
↑ Back to top | Rise Against Bass for One Thousand Good Intentions. Lyrics for acoustic guitar and electric guitar. 1 Tablatures and chords are parodies/interpretations of the original songs. You may use it for private study, scholarship, research or language learning purposes only