» » »

Rise Against, My Life Inside Your Heart Tabs (ver.1)

Artists:  A B C D E F G H I J K L M N O P Q R S T U V W X Y Z # 

My Life Inside Your Heart Tabs (ver.1)

Rise Against Tabs
 Rating:
4/5 (4 votes)
My Life Inside Your Heart lessons Tabs too difficult? Try these video lessons and learn fast
                Intro 
e:--------------------------------------------------| 
b:--------------------------------------------------| 
g:--------------------------------------------------| 
D:---5-4----4------2------4---4-- x4 --2r-----------| 
A:-7------2---2--3---3--5---5----------2r-XXXXXXXXXX| 
E:-------------------------------------0r-XXXXXXXXXX| 

Verse 
e:----------------------------------| 
b:----------------------------------| 
g:----------------------------------| 
D:-22222222--------5555555----------| x4 
A:-22222222-222333-5555555-222333---| 
E:-00000000--------3333333----------| 

second and fourth time replace A:-222333 with these: 

2nd time 4th time 
e:------------| e:-----------------| 
b:------------| b:-----------------| 
g:-12-11-9-9--| g:-12-11-9-11-9-12-| & = PLAY 16 
D:-X--X--X-X--| D:-X--X--X-X--X-X--| (i think) 
A:-10-9--7-7--| A:-10-9--7-9--7-10-| TIMES 
E:------------| E:-----------------| 
& & 

Chorus 

e:----------------------| 
b:----------------------| *=PALM MUTE 
g:----------------------| 
D:-222------------------| 
A:-222-2223335533335555-| 
E:-000------------------| 
* 
2nd and 4th time replace last 4 notes with: 

2nd 
e:-------| e:----------| 
b:-------| b:----------| 
g:-12-11-| g:-12-11-9r-| 
D:-X---X-| D:-X---X-Xr-| PICKSLIDE (after first) 
A:-10--9-| A:-10--9-7r-| 
E:-------| E:----------| 

Verse and Chorus again 

e:----------------------| 
b:----------------------| 
g:-7-11-9-8/9-8/9--7-11-| 
D:-X-X--X-X-X-X-X--X-X--| 
A:-5-9--7-6/7-6/7--5-9--| 
E:----------------------| 

e:------------| 
b:------------| 
g:-9-11-12-14-| 
D:-X-X--X--X--| x2 
A:-7-9--10-12-| 
E:------------| 
*********** 

e:---------| 
b:---------| 
g:---------| 
D:-2-4-5-7-| x4 or 6 (something like that) 
A:-2-4-5-7-| 
E:-0-2-3-5-| 

Chorus 

end on 

e:----| 
b:----| 
g:-9r-| 
D:-xr-| 
A:-7r-| 
E:----|
            
Submit corrections

comments powered by Disqus
↑ Back to top | Rise Against Tabs for My Life Inside Your Heart. Lyrics for acoustic guitar and electric guitar. Tablatures and chords are parodies/interpretations of the original songs. You may use it for private study, scholarship, research or language learning purposes only