>
 >
Midnight Hands 1

Midnight Hands 1 Guitar Tabs

Rise Against - Midnight Hands 1 chords, tabs, tablatures, lyrics

Guitar lessons | Add/correct | Request | Top 50 tabs Artists:  A B C D E F G H I J K L M N O P Q R S T U V W X Y Z 0-9

Midnight Hands 1 Guitar Tabs – Rise Against

CD, Sheet music, Poster

Do you like Midnight Hands 1? Share with your friends now
Bass TabsTabsTabs v2
-------------------------------------------------------------------------------
                             Midnight Hands - Rise Against
-------------------------------------------------------------------------------

Tuning:Drop Db 

I mixed the guitar parts together because it's just how i learned it.  i might try 
to tab out each one 
individually if enough people really want me to, but this should at least give you 
a good start.  Please 
rate this if you find it helpful.


key:
Pm: palm mute the dotted notes
*: natural harmonic
/:slide up
\:slide down
h:hammer-on
p:pull-off


Intro

eb|----------------------------------------|
Bb|----------------------------------------|
Gb|----------------------------------------|  x3
Db|----------------------------------------|
Ab|--------3-------------------------------|
Db|--3h4h5---5-3-0-3-5-0-0-0-0-0-0-0-0-0---|
PM                       . . . . . . . .

Verse

eb|-------------------------------------------------------------------------|
Bb|-------------------------------------------------------------------------|
Gb|-------------------------------------------------------------------------|  x3
Db|-------------------------------------------------------------------------|
Ab|-----------------------------------------------------------3-------------|
Db|--0-0-0-0-0-0-0-0-0-0-0-0-0-0-0-0-0-0-0-0-0-0-0-0-0--3h4h5---5-3-0-3-5-0-|
PM   . . . . . . . . . . . . . . . . . . . . . . . . . 

eb|-------------------------------------------------------------------------|
Bb|-------------------------------------------------------------------------|
Gb|-------------------------------------------------------------------------|
Db|-----------------------------------------------------------5-------------|
Ab|-----------------------------------------------------3h4h5---5-3-0-3-5---|
Db|--0-0-0-0-0-0-0-0-0-0-0-0-0-0-0-0-0-0-0-0-0-0-0-0-0----------------------|
PM   . . . . . . . . . . . . . . . . . . . .

eb|------------------------------------------------------------------------------------|
Bb|------------------------------------------------------------------------------------|
Gb|-7-7-7-7-9-9-9-9-10-10-10-10-12-12-12-12-9-9-9-9-17-17-17-17-15-15-15-15-14-14-14-14|
Db|-x-x-x-x-x-x-x-x-x--x--x--x--x--x--x--x--x-x-x-x-x--x--x--x--x--x--x--x--x--x--x--x-|
Ab|-5-5-5-5-7-7-7-7-8--8--8--8--10-10-10-10-7-7-7-7-15-15-15-15-13-13-13-13-12-12-12-12|
Db|------------------------------------------------------------------------------------|


eb|----------------------------|-------------------------------------|
Bb|----------------------------|-------------5-----7-----------------|
Gb|----------5-----7-----------|-------------5-----7-----------------|
Db|----------5-----7-------3/5-|-------------5-----7--------3/5------|
Ab|----------3-----5-3h0---3/5-|-3h0-3h0-----3-----5--3h0---3/5-3h0--|
Db|--3p0-0-0---0-0---3h0-0-3/5-|-3h0-3h0-0-0---0-0----3h0-0-3/5-3h0--|
PM       . .   . .       .               . .   . .        .            

eb|------------------------------------------------------------------------------------|
Bb|------------------------------------------------------------------------------------|
Gb|-7-7-7-7-9-9-9-9-10-10-10-10-12-12-12-12-9-9-9-9-17-17-17-17-15-15-15-15-14-14-14-14|
Db|-x-x-x-x-x-x-x-x-x--x--x--x--x--x--x--x--x-x-x-x-x--x--x--x--x--x--x--x--x--x--x--x-|
Ab|-5-5-5-5-7-7-7-7-8--8--8--8--10-10-10-10-7-7-7-7-15-15-15-15-13-13-13-13-12-12-12-12|
Db|------------------------------------------------------------------------------------|


Pre-Chorus and Chorus:


eb|------------------|-------------|---------------|-------------------|
Bb|------------------|-------------|---------------|-------------------|
Gb|------------------|-------------|-------7-7-7-7-|-------------------|
Db|--5-5-5-5-5-5-5-5-|-8-8-8-8-10x-|-0-3-0-7-7-7-7-|-10-10-10-10-10-10-|
Ab|--5-5-5-5-5-5-5-5-|-8-8-8-8-10x-|-0-3-0-5-5-5-5-|-8--8--8--8--8--8--|
Db|--5-5-5-5-5-5-5-5-|-8-8-8-8-10x-|-0-3-0-0-0-0-0-|-8--8--8--8--8--8--|
PM                     . . . .


eb|-------------|-------------|
Bb|-------------|-------------|
Gb|-------------|-------------|
Db|-5-5-5-5-5-5-|-7-7-7-7-7-7-|
Ab|-3-3-3-3-3-3-|-5-5-5-5-5-5-|
Db|-3-3-3-3-3-3-|-5-5-5-5-5-5-|


eb|--------------|-------------------|-------------|-------------------------------|
Bb|--------------|-------------------|-------------|-------------------------------|
Gb|--7-7-7-7-7-7-|-------------------|-------------|-------------------------------|
Db|--7-7-7-7-7-7-|-10-10-10-10-10-10-|-5-5-5-5-5-5-|-5-5-5-5-5--------5------------|
Ab|--5-5-5-5-5-5-|-8--8--8--8--8--8--|-3-3-3-3-5-3-|-5-5-5-5-5--3h4h5---5-3-0-3-5--|
Db|--0-0-0-0-0-0-|-8--8--8--8--8--8--|-3-3-3-3-3-3-|-5-5-5-5-5---------------------|


Verse

eb|-------------------------------------------------------------------------|
Bb|-------------------------------------------------------------------------|
Gb|-------------------------------------------------------------------------|
Db|-----------------------------------------------------------5-------------|
Ab|-----------------------------------------------------3h4h5---5-3-0-3-5---|
Db|--0-0-0-0-0-0-0-0-0-0-0-0-0-0-0-0-0-0-0-0-0-0-0-0-0----------------------|
PM   . . . . . . . . . . . . . . . . . . . . . . . . .

eb|-------------------------------------------------------------------------|
Bb|-------------------------------------------------------------------------|
Gb|-------------------------------------------------------------------------|  
Db|-------------------------------------------------------------------------|
Ab|-----------------------------------------------------------3-------------|
Db|--0-0-0-0-0-0-0-0-0-0-0-0-0-0-0-0-0-0-0-0-0-0-0-0-0--3h4h5---5-3-0-3-5-0-|
PM   . . . . . . . . . . . . . . . . . . . . . . . . .

eb|------------------------------------------------------|
Bb|------------------------------------------------------|
Gb|------------------------------------------------------|
Db|------------------------------------------------------|
Ab|------------------------------------------------------|
Db|--0-0-0-0-0-0-0-0-0-0-0-0-0-0-0-0-0-0-0-0-0-0-0-0-5*--|
PM   . . . . . . . . . . . . . . . . . . . . . . . .

eb|-------------------------------------------------------------------------|
Bb|-------------------------------------------------------------------------|
Gb|-------------------------------------------------------------------------|  
Db|--0----------------------------------------------------------------------|
Ab|--0--------------------------------------------------------3-------------|
Db|--0-0-0-0-0-0-0-0-0-0-0-0-0-0-0-0-0-0-0-0-0-0-0-0-0--3h4h5---5-3-0-3-5-0-|
PM     . . . . . . . . . . . . . . . . . . . . . . . .

eb|-------------------------------------------------------------------------|
Bb|-------------------------------------------------------------------------|
Gb|-------------------------------------------------------------------------|
Db|-----------------------------------------------------------5-------------|
Ab|-----------------------------------------------------3h4h5---5-3-0-3-5---|
Db|--0-0-0-0-0-0-0-0-0-0-0-0-0-0-0-0-0-0-0-0-0-0-0-0-0----------------------|
PM   . . . . . . . . . . . . . . . . . . . .

eb|------------------------------------------------------------------------------------|
Bb|------------------------------------------------------------------------------------|
Gb|-7-7-7-7-9-9-9-9-10-10-10-10-12-12-12-12-9-9-9-9-17-17-17-17-15-15-15-15-14-14-14-14|
Db|-x-x-x-x-x-x-x-x-x--x--x--x--x--x--x--x--x-x-x-x-x--x--x--x--x--x--x--x--x--x--x--x-|
Ab|-5-5-5-5-7-7-7-7-8--8--8--8--10-10-10-10-7-7-7-7-15-15-15-15-13-13-13-13-12-12-12-12|
Db|------------------------------------------------------------------------------------|


eb|----------------------------|-------------------------------------|
Bb|----------------------------|-------------5-----7-----------------|
Gb|----------5-----7-----------|-------------5-----7-----------------|
Db|----------5-----7-------3/5-|-------------5-----7--------3/5------|
Ab|----------3-----5-3h0---3/5-|-3h0-3h0-----3-----5--3h0---3/5-3h0--|
Db|--3p0-0-0---0-0---3h0-0-3/5-|-3h0-3h0-0-0---0-0----3h0-0-3/5-3h0--|
PM       . .   . .       .               . .   . .        .

eb|------------------------------------------------------------------------------------|
Bb|------------------------------------------------------------------------------------|
Gb|-7-7-7-7-9-9-9-9-10-10-10-10-12-12-12-12-9-9-9-9-17-17-17-17-15-15-15-15-14-14-14-14|
Db|-x-x-x-x-x-x-x-x-x--x--x--x--x--x--x--x--x-x-x-x-x--x--x--x--x--x--x--x--x--x--x--x-|
Ab|-5-5-5-5-7-7-7-7-8--8--8--8--10-10-10-10-7-7-7-7-15-15-15-15-13-13-13-13-12-12-12-12|
Db|------------------------------------------------------------------------------------|


Pre-Chorus and Chorus

eb|------------------|---------------------|---------------|-------------------|
Bb|------------------|---------------------|---------------|-------------------|
Gb|------------------|---------------------|-------7-7-7-7-|-------------------|
Db|--5-5-5-5-5-5-5-5-|-8-8-8-8-10-10-10-10-|-0-3-0-7-7-7-7-|-10-10-10-10-10-10-|
Ab|--5-5-5-5-5-5-5-5-|-8-8-8-8-10-10-10-10-|-0-3-0-5-5-5-5-|-8--8--8--8--8--8--|
Db|--5-5-5-5-5-5-5-5-|-8-8-8-8-10-10-10-10-|-0-3-0-0-0-0-0-|-8--8--8--8--8--8--|
PM                     . . . .    .  .  .


eb|-------------|-------------|
Bb|-------------|-------------|
Gb|-------------|-------------|
Db|-5-5-5-5-5-5-|-7-7-7-7-7-7-|
Ab|-3-3-3-3-3-3-|-5-5-5-5-5-5-|
Db|-3-3-3-3-3-3-|-5-5-5-5-5-5-|


eb|--------------|-------------------|-------------|-----------|--------------|
Bb|--------------|-------------------|-------------|-----------|--------------|
Gb|--7-7-7-7-7-7-|-------------------|-------------|-----------|---------5----|
Db|--7-7-7-7-7-7-|-10-10-10-10-10-10-|-5-5-5-5-5-5-|-7-7-7-7-7-|-8-7-0-3-5-5--|
Ab|--5-5-5-5-5-5-|-8--8--8--8--8--8--|-3-3-3-3-5-3-|-5-5-5-5-5-|-8-7-0-3-3-5--|
Db|--0-0-0-0-0-0-|-8--8--8--8--8--8--|-3-3-3-3-3-3-|-5-5-5-5-5-|-8-7-0-3---5--|


Interlude

eb|-----------------------------------|
Bb|-----------------------------------|
Gb|-----------------------------------|
Db|--3p0-0h3/5\3p0h3p0-0-0-0-0-0-0-0--| x7
Ab|-----------------------------------|
Db|-----------------------------------|


eb|----------------|------------------------------|------------------------------------|
Bb|----------------|------------------------------|-------------5-----7----------------|
Gb|--------------5-|---------5-----7--------------|-------------5-----7----------------|
Db|--5-3-0-5-3-0-5-|-3p0-----5-----7--------------|-------------5-----7-------3/5------|
Ab|--5-3-0-5-3-0-3-|---------3-----5---3h0----3/5-|-3h0-3h0-----3-----5-3h0---3/5-3h0--|
Db|--5-3-0-5-3-0---|-----0-0---0-0---0-3h0-0--3/5-|-3h0-3h0-0-0---0-0---3h0-0-3/5-3h0--|
PM   . . . . . .         . .   . .   .     .                . .   . .       .

                                         
eb|----------------------------------|------------------------------------------------|
Bb|----------------------------------|------------------------------------------------|
Gb|----------------------------------|------------------------------------------------|
Db|--8-8-8-8-8-8-8-8-8-8-8-8-8-8-8-8-|-10-10-10-10-10-10-10-10-10-10-10-10-10-10-10-10|
Ab|--8-8-8-8-8-8-8-8-8-8-8-8-8-8-8-8-|-10-10-10-10-10-10-10-10-10-10-10-10-10-10-10-10|
Db|--8-8-8-8-8-8-8-8-8-8-8-8-8-8-8-8-|-10-10-10-10-10-10-10-10-10-10-10-10-10-10-10-10|
PM     . . .   .   . . . .                .  .  .     .     .  .  .  .

eb|----------------------------|-------------------------------------|
Bb|----------------------------|-------------5-----7-----------------|
Gb|----------5-----7-----------|-------------5-----7-----------------|
Db|----------5-----7-------3/5-|-------------5-----7--------3/5------|
Ab|----------3-----5-3h0---3/5-|-3h0-3h0-----3-----5--3h0---3/5-3h0--|
Db|--3p0-0-0---0-0---3h0-0-3/5-|-3h0-3h0-0-0---0-0----3h0-0-3/5-3h0--|
PM       . .   . .       .               . .   . .        .

eb|------------|-------------------|---------------------|-------------|--------------------------|
Bb|------------|-------------------|---------------------|-------------|--------------------------|
Gb|------------|-------------------|---------------------|-------------|-------------------------7|
Db|8-8-8-8-8-8-|-10-10-10-10-10-10-|-5-5-5-5-5-5-5-5-5-5-|-8-8-8-8-8-8-|-10-10-10-10-10-10-10-10-7|
Ab|8-8-8-8-8-8-|-10-10-10-10-10-10-|-5-5-5-5-5-5-5-5-5-5-|-8-8-8-8-8-8-|-10-10-10-10-10-10-10-10-5|
Db|8-8-8-8-8-8-|-10-10-10-10-10-10-|-5-5-5-5-5-5-5-5-5-5-|-8-8-8-8-8-8-|-10-10-10-10-10-10-10-10-0|
PM                                                                         .  .  .  .  .  .  .  .

much less distortion for this part 

eb|----------------|------------------|---------------|----------------|
Bb|----------------|------------------|---------------|----------------|
Gb|--7-----7-----7-|-10-----10-----10-|-5-----5-----5-|-7-----7-----7--|
Db|--7-----7-----7-|-10-----10-----10-|-5-----5-----5-|-7-----7-----7--|
Ab|--5-5-5-5-5-5-5-|-8--8-8-8--8-8-8--|-3-3-3-3-3-3-3-|-5-5-5-5-5-5-5--|
Db|--0-0-0-0-0-0-0-|-8--8-8-8--8-8-8--|-3-3-3-3-3-3-3-|-5-5-5-5-5-5-5--|

                                                       Back to heavy distortion
eb|----------------|------------------|---------------|-------------------|
Bb|----------------|------------------|---------------|-------------------|
Gb|--7-----7-----7-|-10-----10-----10-|-5-----5-----5-|-------------------|
Db|--7-----7-----7-|-10-----10-----10-|-5-----5-----5-|--5-3-0-3-0-0-3-5--|
Ab|--5-5-5-5-5-5-5-|-8--8-8-8--8-8-8--|-3-3-3-3-3-3-3-|--5-3-0-3-0-0-3-5--|
Db|--0-0-0-0-0-0-0-|-8--8-8-8--8-8-8--|-3-3-3-3-3-3-3-|--5-3-0-3-0-0-3-5--|
PM                                                         . .   . .

Chorus

eb|--------------|-------------------|-------------|--------------|
Bb|--------------|-------------------|-------------|--------------|
Gb|--7-7-7-7-7-7-|-------------------|-------------|--------------|  
Db|--7-7-7-7-7-7-|-10-10-10-10-10-10-|-5-5-5-5-5-5-|-7-7-7-7-7-7--|x4  
Ab|--5-5-5-5-5-5-|-8--8--8--8--8--8--|-3-3-3-3-3-3-|-5-5-5-5-5-5--|
Db|--0-0-0-0-0-0-|-8--8--8--8--8--8--|-3-3-3-3-3-3-|-5-5-5-5-5-5--|


On last time through chorus play this instead of the last measure

eb|-------------------|
Bb|-------------------|
Gb|-------------------|
Db|--5-3-0-3-0-0-7-8--|
Ab|--5-3-0-3-0-0-7-8--|
Db|--5-3-0-3-0-0-7-8--|
PM     . .   . .





Comments


Popular Rise Against tabs & chords
1000 Good Intentions 2 Bass Tabs
Re-education 2 Bass Tabs
Six Ways Till Sunday 2 Bass Tabs
State Of The Union Bass Tabs
Swing Life Away 6 Chords
Behind Closed Doors 3 Tabs
Black Masks And Gasoline 1 Tabs
Blind Tabs
Blood To Bleed 5 Tabs
Collapse 3 Tabs


Song lyrics



↑ Back to top | Tablatures and chords are parodies/interpretations of the original songs. You may use it for private study, scholarship, research or language learning purposes only
© 2014 AZChords.com Contact us | Privacy policy | DMCA | Add/correct tabs | Request tabs | Top 50 tabs