>
 >
Making Christmas

Making Christmas Guitar Tabs

Rise Against - Making Christmas chords, tabs, tablatures, lyrics

Guitar lessons | Add/correct | Request | Top 50 tabs Artists:  A B C D E F G H I J K L M N O P Q R S T U V W X Y Z 0-9

Making Christmas Guitar Tabs – Rise Against

CD, Sheet music, Poster

Do you like Making Christmas? Share with your friends now
Tabs
----------------------------------------------------------------------------
----------------------------------------------------------------------------


Tuning:STANDARD!
  
   INTRO
 Guitar #1:
e|----------------------------------|--------------------------------------|
B|---15--14--15--12--15--14--15--12-|--------------------------------------|
G|----------------------------------|-4-4-4-4-4-4-4-4-4-4-4-4-4-4-4-4------|
D|-12--12--12--12-12--12--12--12----|-4-4-4-4-4-4-4-4-4-4-4-4-4-4-4-4-4--6-|
A|----------------------------------|-2-2-2-2-2-2-2-2-2-2-2-2-2-2-2-2-4--6-|
E|----------------------------------|---------------------------------2--4-|
 Guitar #2:
e|----------------------------------|--------------------------------------|
B|----------------------------------|--------------------------------------|
G|----------------------------------|--------------------------------------|
D|-0-0-0-0-0-0-0-0-0-0-0-0-0-0-0-0--|--0-0-0-0-0-0-0-0-0-0-0-0-0-0-0-0-----|
A|-5-5-4-4-5-5-2-2-5-5-4-4-5-5-2-2--|--5-5-4-4-5-5-2-2-5-5-4-4-5-5-2-2-----|
E|----------------------------------|--------------------------------------|
   ********************************
 *Verse*  (palm muted)
e|-------------------------------------------------------------------------|
B|-------------------------------------------------------------------------|
G|-4---------------------------------4-4-----------------------------------|
D|-4---------------------------------4-4-----------------------------------|
A|-2-2-2-2-2-2-2-2-2-2-2-2-2-2-2-2-2-2-2-2-2-2-2-2-2-2-2-2-2-2-2-2-2-2-2---|
E|-------------------------------------------------------------------------|

e|------------------------------------------------------------------------|
B|------------------------------------------------------------------------|
G|------4-4-------------------------------------4-4-----------------------|
D|------4-4-------------------------------------4-4-----------------------|
A|--2-2-2-2-2-2-2-2-2-2-2-2-2-2-2-2-2-2-2-2-2-2-2-2-2-2-2-2-2-2-2-2-2-2-2-|
E|------------------------------------------------------------------------|
  (Still palm muted)
e|-------------------------------------------------------------------------|
B|-------------------------------------------------------------------------|
G|--------------------------------------------------------------7-6-4-7-6--|
D|--------------------------------------------------------------7-6-4-7-6--|
A|--------------------------------------------------------------5-4-2-5-4--|
E|--7-7-6-6-7-7-4-4-7-7-6-6-7-7-4-4-7-7-6-7-4-4-4-4-4-4-4-4-4-4------------|

e|-------------------------------------------------------------------------|
B|-------------------------------------------------------------------------|
G|-------------------------------------------------------------------------|
D|-4-------------------------------------4-4-------------------------------|
A|-4-------------------------------------4-4-------------------------------|
E|-2-2-2-2-2-2-2-2-2-2-2-2-2-2-2-2-2-2-2-2-2-2-2-2-2-2-2-2-2-2-2-2-2-------|
   **********************
   Guitar#1:
e|-------------------------------------------------------------------------|
B|-------------------------------------------------------------------------|
G|-------------------------------------------------------------------------|
D|-4-3-4-3-1-4-3-4-3-1-4-3-4-3-1-4-3-4-3-1-4-3-4-6-7-8-9-10----------------|
A|-4-3-4-3-1-4-3-4-3-1-4-3-4-3-1-4-3-4-3-1-4-3-4-6-7-8-9-10----------------|
E|-2-1-2-1---2-1-2-1---2-1-2-1---2-1-2-1---2-1-2-4-5-6-7-8-----------------|
  Guitar#2:
e|-------------------------------------------------------------------------|
B|-7777666677664444-7777666677664444-7777666677664444-7777666677664444-----|
G|-------------------------------------------------------------------------|
D|-------------------------------------------------------------------------|
A|-------------------------------------------------------------------------|
E|-------------------------------------------------------------------------|

  Guitar#1:  (palm muted
e|-------------------------------------------------------------------------|
B|-------------------------------------------------------------------------|
G|-------------------------------------------------------------------------|
D|-4---------------------------------6-------------------------------------|
A|-4---------------------------------6-------------------------------------|
E|-2-2-2-2-2-2-2-2-2-2-2-2-2-2-2-2-2-4-4-4-4-4-4-4-4-4-4-4-4-4-4-4-4-------|
  Guitar#2:
e|-------------------------------------------------------------------------|
B|-------------------------------------------------------------------------|
G|-------------------------------------------------------------------------|
D|-------------------------1-2-4-------------------------------------------|
A|-------------------------------2-----------------------------------------|
E|---------------------------------4---------------------------------------|
      *******************
e|--------------------------------|
B|--------------------------------|
G|--------------------------------|
D|--6-5-6---6-5-6----6-5-3-5------|
A|--6-5-6-6-6-5-6-6--6-5-3-5------|
E|--4-3-4-6-4-3-4-6--4-3-1-3------|

e|-------------------------------------------------------------------------|
B|-------------------------------------------------------------------------|
G|-----5-5-5-5-----5-5-5-5-----4-4-4-4-----2-2-2-2-----2-2-2-2-----4-4-4-4-|
D|-----5-5-5-5-----5-5-5-5-----4-4-4-4-----2-2-2-2-----2-2-2-2-----4-4-4-4-|
A|-3-3-3-3-3-3-3-3-3-3-3-3-2-2-2-2-2-2-0-0-0-0-0-0-0-0-0-0-0-0-2-2-2-2-2-2-|
E|-------------------------------------------------------------------------|

e|-------------------------------------------------------------------------|
B|-------------------------------------------------------------------------|
G|-----2-2-2-2-----4-4-4-4-----2-2-2-2--------6-6-----6-6-----6-6-----6-6--|
D|-----2-2-2-2-----4-4-4-4-----2-2-2-2--------6-6-----6-6-----6-6-----6-6--|
A|-0-0-0-0-0-0-2-2-2-2-2-2-0-0-0-0-0-0----4-4-4-4-4-4-4-4-4-4-4-4-4-4-4-4--|
E|-------------------------------------------------------------------------|

  Guitar#1:
e|-------------------------------------------------------------------------|
B|-------------------------------------------------------------------------|
G|-5-5-5-5-2-2-2-2-3-3-3-3-2-2-2-2-5-5-5-5-2-2-2-2-3-3-3-3-2---------------|
D|-5-5-5-5-2-2-2-2-3-3-3-3-2-2-2-2-5-5-5-5-2-2-2-2-3-3-3-3-2---------------|
A|-3-3-3-3-0-0-0-0-1-1-1-1-0-0-0-0-3-3-3-3-0-0-0-0-1-1-1-1-0---------------|
E|-------------------------------------------------------------------------|
   Guitar#2:
e|-------------------------------------------------------------------------|
B|-------------------------------------------------------------------------|
G|-5--4---5---2---5--3---5---2--5---4--5---2---5---3---5---2---------------|
D|-------------------------------------------------------------------------|
A|-------------------------------------------------------------------------|
E|-------------------------------------------------------------------------|
     ***************************

e|-------------------------------------------------------------------------|
B|-------------------------------------------------------------------------|
G|-7-7-7-7---------7-7-7-7---------7-7-7-7---------7-5---------------------|
D|-7-7-7-7-7-7-7-7-7-7-7-7-7-7-7-7-7-7-7-7-5-5-5-5-7-5-7-------------------|
A|-5-5-5-5-7-7-7-7-5-5-5-5-7-7-7-7-5-5-5-5-5-5-5-5-5-3-7-------------------|
E|---------5-5-5-5---------5-5-5-5---------3-3-3-3-----5-------------------|

e|-------------------------------------------------------------------------|
B|-------------------------------------------------------------------------|
G|-5-5-5-5---------5-5-5-5---------5-5-5-5---------5---8-7-5---------------|
D|-5-5-5-5-3-3-3-3-5-5-5-5-3-3-3-3-5-5-5-5-3-3-3-3-5-3-8-7-5---------------|
A|-3-3-3-3-3-3-3-3-3-3-3-3-3-3-3-3-3-3-3-3-3-3-3-3-3-3-6-5-3---------------|
E|---------1-1-1-1---------1-1-1-1---------1-1-1-1---1---------------------|

  Cool Chorus:
e|-------------------------------------------------------------------------|
B|-------------------------------------------------------------------------|
G|-5-5-5-5-5-5-5-5-8-8-8-8-8-8-8-8---------------------------------5-------|
D|-5-5-5-5-5-5-5-5-8-8-8-8-8-8-8-8-3-3-3-3-3-3-3-3-6-6-6-6-6-6-6-6-5-------|
A|-3-3-3-3-3-3-3-3-6-6-6-6-6-6-6-6-3-3-3-3-3-3-3-3-6-6-6-6-6-6-6-6-3-------|
E|---------------------------------1-1-1-1-1-1-1-1-4-4-4-4-4-4-4-4---------|

   Solo:
e|-------------------------------------------------------------------------|
B|----------------------------------------------8-8-10-10-8-8-10-10--------|
G|-------------------------------5-5-8-8-5-5-8-8---------------------------|
D|----------------5-5-7-7-5-5-7-7------------------------------------------|
A|-3-3-6-6-3-3-6-6---------------------------------------------------------|
E|-------------------------------------------------------------------------|

e|-------------------------------------------------------------------------|
B|-------------------------------------------------------------------------|
G|-3-4-5-3-4-5-6-5-6-------------7-6-4----8-8---------8-8---------8-8------|
D|-------------6-5-6-----6-4-----7-6-4----8-8---------8-8---------8-8------|
A|--------------------4-7-7-5-7--5-4-2----6-6-6-6-6-6-6-6-6-6-6-6-6-6-6-6-6|
E|-------------------------------------------------------------------------|
                                        (palm muted)  
e|-------------------------------------------------------------------------|
B|------------------------------------------------7------------------------|
G|11-10-11-8--11-10-11--8--11-10-11---8----8------8--11-10-8-11-10---------|
D|11-10-11-8---------------11-10-11---8-10-8-10---8--11-10-8-11-10---------|
A|-9-8--9--6-9--8--9--6----9--8--9----6-10-6-10-6-6--9--8--6-9--8----------|
E|--------------------------------------8----8-----------------------------|

e|-------------------------------------------------------------------------|
B|-----------------------------------------------------------7-10-7-6-4-6-7|
G|------------------------------------------------------------8--8---------|
D|--6-5-6-7--6-5-6-7--4---4-------------1-1-2-2----------------------------|
A|-4--------4-----------6---6-7-6-4-6-7--3-3-4-4--6-7-9-6-7-9--------------|
E|-------------------------------------------------------------------------|


e|-------------------------------------------------------9-6-7-6-7-6-7-----|
B|-10-9-7-9-7-6-7-6-4-7------------------------9-7-------------------------|
G|---------------------------------9-9-8-8--6-9-----6-8-9------------------|
D|---------------------------------9-9-8-8---------------------------------|
A|--------------------------4-6-7--7-7-6-6---------------------------------|
E|-------------------------------------------------------------------------|

e|-------------------------------------------------------------------------|
B|-------------------------------------------------------------------------|
G|---12--12--12--12--12--12--12--12--------10-11-----8-6-------------------|
D|-----------------------------------11-10-10-11-9-9-8-6-------------9-9-9-|
A|-10--10--10--10--10--10--10--10----11-10-8--9--9-9-6-4--7-6-4-4-/--9-9-9-|
E|-----------------------------------9--8--------7-7-----------7-----------|
   End Of Solo...
               (Palm Muted)
e|-------------------------------------------------------------------------|
B|-------------------------------------------------------------------------|
G|-7-6---7-6------------------------------------6-5-6-3-6-5-6-3-6-5-6-3----|
D|-7-6---7-6------------------------------------6-5-6-3-6-5-6-3-6-5-6-3----|
A|-5-4---5-4---4-4-4-4-4-4-4-4-7-7-7-7-7-7-7-7--4-3-4-1-4-3-4-1-4-3-4-1----|
E|-------------------------------------------------------------------------|


e|-------------------------------------------------------------------------|
B|-------------------------------------------------------------------------|
G|-6-5-6-3-6-5-6-7-8-9-10-11-12-13-11-9-8----6-----------------------------|
D|-6-5-6-3-6-5-6-7-8-9-10-11-12-13-11-9-8----6-----------------------------|
A|-4-3-4-1-4-3-4-5-6-7-8--9--10-11-9--7-6----4-----------------------------|
E|-------------------------------------------------------------------------|
   Small solo at end:
e|---------------------------16-21--21b------------------------------------|
B|-------------------------17----------------------------------------------|
G|--------------6-5-6----18------------------------------------------------|
D|--------6-5-6------6-----------------------------------------------------|
A|-7-6-7-4-----7-----------------------------------------------------------|
E|-------------------------------------------------------------------------|


************************************

| /   slide up
| \   slide down
| h   hammer-on
| p   pull-off
| ~   vibrato
| +   harmonic
| x   Mute note
| b   Bend
| pb  Pre-bend
| br  Bend release
| pbr Pre-bend release
| brb Bend release bend

************************************





Comments


Popular Rise Against tabs & chords
Audience Of One 5 Bass Tabs
Drones Bass Tabs
Endgame Bass Tabs
Fix Me Bass Tabs
Savior Bass Tabs
Tip The Scales Bass Tabs
Give It All 1 Drum Tabs
Dancing For Rain Intro 1 Tabs
Savior Intro 1 Tabs
From Heads Unworthy Ukulele


Song lyrics



↑ Back to top | Tablatures and chords are parodies/interpretations of the original songs. You may use it for private study, scholarship, research or language learning purposes only
© 2014 AZChords.com Contact us | Privacy policy | DMCA | Add/correct tabs | Request tabs | Top 50 tabs