» » »

Rise Against, Make It Stop Septembers Children Tabs (ver.2)

Artists:  A B C D E F G H I J K L M N O P Q R S T U V W X Y Z # 

Make It Stop Septembers Children Tabs (ver.2)

Rise Against Tabs
Rating:
0/5 (0 votes)
Hard to play? Try these video lessons and learn fast.
                -------------------------------------------------------------------------------
                “Make It Stop (September's Children)” - Rise Against
-------------------------------------------------------------------------------



Tuning: ½ Step down (Eb Ab Db Gb Bb Eb)

Learned this by ear; fairly simple song, but great nonetheless.


Intro

Guitar 1
(With Tremolo effect)
eb|---------|
Bb|---------|
Gb|---7-----|x2
Db|-9-7-7-7-|
Ab|-9-5-7-7-|
Eb|-7---5-5-|

Intro Part 2

Guitar 2 (comes in after Guitar 1 at about 11 seconds)
eb|---------------------------------------------------------------------------|
Bb|---------------------------------------------------------------------------|
Gb|4-4-16-16-11-11-7-7-14-14-10-10-11-11-7-7-9-9-11-11-11-11-7-7-9-9-11-11----|
Db|---------------------------------------------------------------------------|
Ab|2-2-14-14-9--9--5-5-12-12-10-10-9--9--5-5-7-7-9--9--9--9--5-5-7-7-9--9-----|
Eb|---------------------------------------------------------------------------|
        ^This part is played twice. At the end of the first time, this is played:
eb|------------|
Bb|------------|
Gb|12-12-11-11-|
Db|------------|
Ab|10-10-9--9--|
Eb|------------|
Then the second time,
eb|------------|
Bb|------------|
Gb|9-9-7-7-4---|
Db|------------|
Ab|7-7-5-5-2---|
Eb|------------|
Guitar 1 (Along with  Guitar 2)
eb|-------------------|
Bb|-------------------|
Gb|------7------------|x2
Db|9-----7(x8)-7------|
Ab|9(x8)-5-----7(x16)-|
Eb|7-----------5------|
For the first half of the verses, just hold the last notes of the intro. For the 
second half, play this:
eb|-------------------|
Bb|-------------------|
Gb|------7------------|
Db|9-----7(x8)-7------|
Ab|9(x8)-5-----7(x16)-|
Eb|7-----------5------|

Pre-Chorus
eb|--------------------------------|
Bb|--------------------------------|
Gb|4-4-6-6-7-7-----------4-4-6-6-7-|
Db|-----------(x5,then)------------|
Ab|2-2-4-4-5-5-----------2-2-4-4-5-|
Eb|--------------------------------|

Chorus
eb|---------------------------------------------------------------------------|
Bb|---------------------------------------------------------------------------|
Gb|------7-----------------------7--------------------------------------------|
Db|9-----7(x8)-7-----2-----9-----7(x8)-7-------2------------------------------|
Ab|9(x8)-5-----7(x8)-2(x8)-9(x8)-5-----7(x4)---2(x4)--------------------------|
Eb|7-----------5-----0-----7-----------5-------0------------------------------|

Post-Chorus
I play this along with the vocals, but it's not played in the song. Tim and Zach 
just play the chorus/verse rhythm again twice.
eb|---------------------------------------------------------------------------|
Bb|---------------------------------------------------------------------------|
Gb|11--4--7-9-11-9--7-9---11--4--7-9-11-9--7-6--6-7-6-4-----------------------|
Db|---------------------------------------------------------------------------|
Ab|9---2--5-7-9--7--5-7---9---2--5-7-9--7--5-4--4-5-4-2-----------------------|
Eb|---------------------------------------------------------------------------|

Repeat Intro Part 2
Repeat Verse
Repeat Pre-Chorus
Repeat Chorus
then:
Second Post-Chorus
eb|---------------------------------------------------------------------------|
Bb|---------------------------------------------------------------------------|
Gb|11--4--7-9-11-9--7-9---11--4--7-9-11-9--7-9--------------------------------|
Db|---------------------------------------------------------------------------|
Ab|9---2--5-7-9--7--5-7---9---2--5-7-9--7--5-7--------------------------------|
Eb|---------------------------------------------------------------------------|

Bridge
Guitars 1 & 2
eb|-------------------------------------------|
Bb|-------------------------------------------|
Gb|-------------------------------------------|(x3)
Db|9-----7-----4-----5-----9-----7-----5------|
Ab|9(x8)-7(x8)-4(x8)-5(x8)-9(x8)-7(x8)-5(x16)-|
Eb|7-----5-----2-----3-----7-----5-----3------|
Guitar 2 then plays this, while Guitar 1 repeats the above once more.
eb|------------------|
Bb|------------------|
Gb|------------------|
Db|7-7-7-6-6-6-4-4-4-|(x4)
Ab|------------------|
Eb|5-5-5-4-4-4-2-2-2-|
End this section on:
eb|--|
Bb|--|
Gb|--|
Db|9-|
Ab|9-|
Eb|7-|
eb|--|
Bb|--|
Gb|4-|
Db|--|
Ab|2-|
Eb|--|

During the spoken part, this is played a few times and sustained. Just listen for the timing.
eb|-----|
Bb|-----|
Gb|-2h4-|
Db|-----|
Ab|-----|
Eb|-----|
Repeat Chorus twice to the end.

Song order:
Intro
Intro Part 2
Verse
Pre-Chorus
Chorus
Post-Chorus
Verse
Pre-Chorus
Chorus
Second Post-Chorus
Bridge
Chorus 2x

************************************

| /   slide up
| \   slide down
| h   hammer-on
| p   pull-off
| ~   vibrato
| +   harmonic
| x   Mute note
| b   Bend
| pb  Pre-bend
| br  Bend release
| pbr Pre-bend release
| brb Bend release bend

************************************
            

comments powered by Disqus
↑ Back to top | Rise Against Tabs for Make It Stop Septembers Children. Lyrics for acoustic guitar and electric guitar. Tablatures and chords are parodies/interpretations of the original songs. You may use it for private study, scholarship, research or language learning purposes only