» » »

Rise Against, Like The Angel Tabs (ver.3)

Artists:  A B C D E F G H I J K L M N O P Q R S T U V W X Y Z # 

Like The Angel Tabs (ver.3)

Rise Against Tabs
Rating:
0/5 (0 votes)
Like The Angel lessons Tabs too difficult? Try these video lessons and learn fast
                (Solo)
the solo should be pretty correct-good as its gonna get!sounds right! 

-|------------------------------------------------------------------------|--
-|-11--------11--------11----13--------13--------13----15--------15-------|--
-|----131313----131313----13----111111----111111----11----131313----131313|--
-|------------------------------------------------------------------------|--
           bass intro                                                         


-|--------------------------------|------------------------------------------
-|-15----16--------16--------16---|------------------------------------------
-|----13----131313----131313----13|------------------------------------------
-|--------------------------------|------------------------------------------
               (then come back down(same riff but backwards)       

-|----------------4p2p1----------------------------------------------------|-
-|-----2-4b5r4----------4p2p1-2-2-2-2-4------------------------------------|-
-|---3---------3------------------------5--5h6-6/-15-15-15-13--------------|-
-|-3----------------------------------------------------------16-15-5-15h16|-
-|-------------------------------------------------------------------------|-
-|-------------------------------------------------------------------------|-
                          now the guitar solo!                                              

-|---------------6---------6h8h9--10b111111r10p8-------------------------|---
-|-----2-4b5r4p2-----6h7h8------------------------11-11h13-13-10-10-10-10|---
-|---3-------------------------------------------------------------------|---
-|-3---------------------------------------------------------------------|---
-|-----------------------------------------------------------------------|---
-|-----------------------------------------------------------------------|---
                                      (repeat bend)                           

-|--------------------------------------------------------|------------------
-|-10-10----------------------------10------12------13----|------------------
-|--------10-10-13-11p10-6-8h10h11--12b14---14b16---15b17-|------------------
-|--------------------------------------------------------|------------------
-|--------------------------------------------------------|------------------
-|--------------------------------------------------------|------------------
            

comments powered by Disqus
↑ Back to top | Rise Against Tabs for Like The Angel. Lyrics for acoustic guitar and electric guitar. Tablatures and chords are parodies/interpretations of the original songs. You may use it for private study, scholarship, research or language learning purposes only