>
 >
Join The Ranks

Join The Ranks Guitar Tabs

Rise Against - Join The Ranks chords, tabs, tablatures, lyrics

Guitar lessons | Add/correct | Request | Top 50 tabs Artists:  A B C D E F G H I J K L M N O P Q R S T U V W X Y Z 0-9

Join The Ranks Guitar Tabs – Rise Against

CD, Sheet music, Poster

Do you like Join The Ranks? Share with your friends now
Bass TabsTabs
Verse 1 
e|---------------------------------------------------------------------------| 
B|---------------------------------------------------------------------------| 
G|-8-8--6--8-8--6--8-8--6-------3--4-4-4--6-6-6--8-8-8-8---------------------|x2 
D|-6-6--4--6-6--4--6-6--4--4-4--1--2-2-2--4-4-4--6-6-6-6---------------------| 
A|-6-6--4--6-6--4--6-6--4--2-2--1--2-2-2--4-4-4--6-6-6-6---------------------| 
E|-------------------------2-2-----------------------------------------------| 

Chorus 1 
e|---------------------------------------------------------------------------| 
B|---------------------------------------------------------------------------| 
G|-4-4-4-4-4-4--8-8-8-6-6-6--4-4-4-4-4-4-------------------------------------| 
D|-2-2-2-2-2-2--6-6-6-4-4-4--2-2-2-2-2-2--6-6-6-8-8-8------------------------| 
A|-2-2-2-2-2-2--6-6-6-4-4-4--2-2-2-2-2-2--4-4-4-6-6-6------------------------| 
E|----------------------------------------4-4-4-6-6-6------------------------| 

e|---------------------------------------------------------------------------| 
B|---------------------------------------------------------------------------| 
G|-4-4-4-4-4-4--8-8-8-6-6-6--------------------------------------------------| 
D|-2-2-2-2-2-2--6-6-6-4-4-4--4-4-4-4-4-4--8-8-8-8-8-8------------------------| 
A|-2-2-2-2-2-2--6-6-6-4-4-4--2-2-2-2-2-2--6-6-6-6-6-6------------------------| 
E|---------------------------2-2-2-2-2-2--6-6-6-6-6-6------------------------| 

Verse 2 
e|---------------------------------------------------------------------------| 
B|---------------------------------------------------------------------------| 
G|-8--8--6--8--8--6--8--8--6-----3--4--4--4--6--6--6--8--8--8--8-------------|x2 
D|-6--6--4--6--6--4--6--6--4--4--1--2--2--2--4--4--4--6--6--6--6-------------| 
A|-6--6--4--6--6--4--6--6--4--2--1--2--2--2--4--4--4--6--6--6--6-------------| 
E|----------------------------2----------------------------------------------| 

Chorus 2 
e|---------------------------------------------------------------------------| 
B|---------------------------------------------------------------------------| 
G|-4-4-4-4-4-4--8-8-8-6-6-6--4-4-4-4-4-4-------------------------------------| 
D|-2-2-2-2-2-2--6-6-6-4-4-4--2-2-2-2-2-2--6-6-6-8-8-8------------------------| 
A|-2-2-2-2-2-2--6-6-6-4-4-4--2-2-2-2-2-2--4-4-4-6-6-6------------------------| 
E|----------------------------------------4-4-4-6-6-6------------------------| 

e|------------------------------------------------------|---|-----------------| 
B|------------------------------------------------------|---|-----------------| 
G|-4-4-4-4-4-4--8-8-8-6-6-6-----------------------------|-8-|-----------------| 
D|-2-2-2-2-2-2--6-6-6-4-4-4--4-4-4-4-4-4--8-8-8-8-8-8---|-6-|-----------------| 
A|-2-2-2-2-2-2--6-6-6-4-4-4--2-2-2-2-2-2--6-6-6-6-6-6---|-6-|-----------------| 
E|---------------------------2-2-2-2-2-2--6-6-6-6-6-6---|---|-----------------| 

Bridge 
e|---------------------------------------------------------------------------| 
B|---------------------------------------------------------------------------| 
G|-11--10------------------11--10------11--10------11--13--15----------------| 
D|--9---8--11--13--11--13---9---8--11---9---8--11---9--11--13----------------| 
A|--9---8---9--11---9--11---9---8---9---9---8---9---9--11--13----------------| 
E|----------9--11---9--11-----------9-----------9----------------------------| 

Chorus 3 
e|---------------------------------------------------------------------------| 
B|---------------------------------------------------------------------------| 
G|-4-4-4-4-4-4--8-8-8-6-6-6--4-4-4-4-4-4-------------------------------------| 
D|-2-2-2-2-2-2--6-6-6-4-4-4--2-2-2-2-2-2--6-6-6-8-8-8------------------------| 
A|-2-2-2-2-2-2--6-6-6-4-4-4--2-2-2-2-2-2--4-4-4-6-6-6------------------------| 
E|----------------------------------------4-4-4-6-6-6------------------------| 

e|----------------------------------------------------| 
B|----------------------------------------------------| 
G|-4-4-4-4-4-4--8-8-8-6-6-6---------------------------| 
D|-2-2-2-2-2-2--6-6-6-4-4-4--4-4-4-4-4-4--8-8-8-8-8-8-| 
A|-2-2-2-2-2-2--6-6-6-4-4-4--2-2-2-2-2-2--6-6-6-6-6-6-| 
E|---------------------------2-2-2-2-2-2--6-6-6-6-6-6-| 

e|----------------------------| 
B|----------------------------| 
G|-8-8--6--8-8--6--8-8--6--8--| 
D|-6-6--4--6-6--4--6-6--4--6--| 
A|-6-6--4--6-6--4--6-6--4--6--| 
E|----------------------------| 

Solo
e|--10b(11)10b-14-13-------14p12p11-14p12p11-14p12p11-14p12p11-14p12p11-| 
B|-------------------16-16----------------------------------------------| 
G|----------------------------------------------------------------------| 
D|----------------------------------------------------------------------| 
A|----------------------------------------------------------------------| 
E|----------------------------------------------------------------------| 

e|12/-14-11-11-18-16-14-16-14----------13-14-18p1416p14-18p1416p14-18p1416p14| 
B|-----------------------------18-16-18--------------------------------------| 
G|---------------------------------------------------------------------------| 
D|---------------------------------------------------------------------------| 
A|---------------------------------------------------------------------------| 
E|---------------------------------------------------------------------------| 

e|-18p1416p14-18p14p16p14-18p1416p14-18p1416p14-12-----12--12-12---------| 
B|----------------------------------------------15b(16)15br15-15b(16)15b-| 
G|-----------------------------------------------------------------------| 
D|-----------------------------------------------------------------------| 
A|-----------------------------------------------------------------------| 
E|-----------------------------------------------------------------------| 

e|-17b(18)-17b(18)-15-19-| 
B|-----------------------| 
G|-----------------------| 
D|-----------------------| 
A|-----------------------| 
E|-----------------------|





Comments


Popular Rise Against tabs & chords
Long Forgotten Sons 2 Bass Tabs
The Art Of Losing Bass Tabs
Broken Mirrors Chords
Roadside 1 Chords
Break Free Tabs
Dirt And Roses Tabs
Fix Me Tabs
Hero Of War Live Tabs
Last Chance Blueprint Tabs
The Dirt Whispered Tabs


Song lyrics



↑ Back to top | Tablatures and chords are parodies/interpretations of the original songs. You may use it for private study, scholarship, research or language learning purposes only
© 2014 AZChords.com Contact us | Privacy policy | DMCA | Add/correct tabs | Request tabs | Top 50 tabs