» » »

Rise Against, Heaven Knows Bass tabs (ver.1)

Artists:  A B C D E F G H I J K L M N O P Q R S T U V W X Y Z # 

Heaven Knows Bass tabs (ver.1)

Rise Against Tabs
 Rating:
4/5 (4 votes)
Heaven Knows  lessons Tabs too difficult? Try these video lessons and learn fast
                (1)
_________________________________________________

 = strum to the rhythm of the song
* = let ring

|------------------------|------------------| Intro x2
|------------------------|------------------|
|-4>--0>-----------------|-4>-66-4-2-0>-2>--|
|---------4-2--0>-22 45--|------------------| 
  
the second time play A|-66-4-2-0>-2>-0>-2*-| on the last part 

verse

|strum shiitloads on 4------|
|---------------------------|
|-4>-00-0---------22-2------|
|-----------22-2--------44-4|x2

continued

|----------|
|----------|
|-0>----4>-|
|----------|

chorus x2

|-----------------------------|
|-----------------------------|
|-44-4------44-4--------------|
|------024-------024--0>--2>--|x3 (or maybe x2 hehe) 

continued

|------------|
|------------|
|-0>---4*----|
|------------|

verse

|----------------------------------------------| |------------| this is the guitar fill
|----------------------------------------------| |----4-2-----| so play it if you want 
|-4>-(strum shiitloads)-00-0---------22-2------| |-4>-----2-4-| i think its cool to play on 
|----------------------------22-2---------44-4-| |------------| bass too.

|--------------------------------|
|--------------------------------|
|-4>-/16>--00-0--------22-2------|
|----------------22-2-------44-4-|

|----------|
|----------|
|-0>----4>-|
|----------|


play chorus x2

|----------|
|----------|
|-2*----4*-|
|----------|


slow part 
  
|-play this x1-|-play forever-|
|--------------|--------------|
|-4-2-0>----2>-|--0>----2>----|
|--------0>----|-----0>-------|

fill he plays (im not sure how many times he does that and when)

|------------|
|---4-1------|
|-2-----2----|
|------------|

end 

|--0*----2*--|
|-----0*-----|


ahh *** i gotta go study now
i hope its right cuz i suck
have fun.
            
Submit corrections

comments powered by Disqus
↑ Back to top | Rise Against Bass for Heaven Knows. Lyrics for acoustic guitar and electric guitar. Tablatures and chords are parodies/interpretations of the original songs. You may use it for private study, scholarship, research or language learning purposes only