» » »

Generation Lost Tabs (ver.3)

Artists:  A B C D E F G H I J K L M N O P Q R S T U V W X Y Z # 

Generation Lost Tabs (ver.3)

Rise Against
Rating:
0/5 (0 votes)

Tabs too difficult? Try these video lessons and learn fast.
                Band: Rise Against
Tune: Half Step Down

/- slide up
\- slide down
~- ring
.- palm mute
b- bend

intro x2
[--------------------------------------------------------------------]
[--------------------------------------------------------------------]
[-----------------------------------------------------7/9-7\6-7\6-4-2]
[4-4-4444-4-4-4-7-7-7777-7-7-7---------4-4-4444-4-4-4----------------]
[2-2-2222-2-2-2-5-5-5555-5-5-5-7-7-7-7-2-2-2222-2-2-2-5/7-5\4-5\4-2-0]
[------------------------------5-5-5-5-------------------------------]

[--------------------------------------------------------------------------]
[--------------------------------------------------------------------------]
[---------------------------------------------------14-14-14141414-14-14-14]
[4-4-4444-4-4-4-7-7-7777-7-7-7---------------------------------------------]
[2-2-2222-2-2-2-5-5-5555-5-5-5-2--4--5-5-5555-5-5-5-12-12-12121212-12-12-12]
[------------------------------0--2--3-3-3333-3-3-3------------------------]
on second time end on [--]
                      [--]
                      [--]
                      [--]
                      [9~]
                      [7~]
then that bass solo thing

Verse
[-------------------------------------------------------------]
[-------------------------------------------------------------]
[-------------------------------------------------------------]
[-----------7-6-44----44----44---------------7-6-44----44---44]
[4-4-4447-7-5-4-22----22----22----4-4-4447-7-5-4-22----222b-22]
[2-2-2225-5-----------------------2-2-2225-5------------------]

[--------------------------------------------]
[--------------------------------------------]
[---------------------14-14-14141414-14-14-14]
[--------------------------------------------]
[2--4--5-5-5555-5-5-5-12-12-12121212-12-12-12]
[0--2--3-3-3333-3-3-3------------------------]

[------------------------]
[------------------------]
[------------------------]
[444444444444777777------]
[222222222222555555777777]
[------------------555555]x3
  .. .. .. .. .. .. .. ..
[--------------------------------------------]
[--------------------------------------------]
[---------------------14-14-14141414-14-14-14]
[--------------------------------------------]
[2--4--5-5-5555-5-5-5-12-12-12121212-12-12-12]
[0--2--3-3-3333-3-3-3------------------------]

chorus- repeat intro
repeat verse- instead of 2b, its 3rd biggest string 4b
chorus
bridge
[------------------------pi]
[------------------------ck]
[12--11--9-9-7-7-7-14--14sl]
[------------------------id]
[10---9--7-7-5-5-5-12--12-e]
[--------------------------]

[--------------------------------------------------------------]
[--------------------------------------------------------------]
[--------------------------------------------------------------]
[4444444---------7777777--------4444444777777777---------------]
[22222225555555555555555444444442222222555555555444444477777777]
[-------333333333-------22222222----------------222222255555555]palm mute x2
                                                                thennormalx2
repeat till end of song. will do end solo in next version.i guess
            
Tabs too difficult? Try these video lessons and learn fast.


comments powered by Disqus
↑ Back to top | Tablatures and chords are parodies/interpretations of the original songs. You may use it for private study, scholarship, research or language learning purposes only