» » »

Everchanging Tabs (ver.6)

Artists:  A B C D E F G H I J K L M N O P Q R S T U V W X Y Z # 

Everchanging Tabs (ver.6)

Rise Against
Rating:
0/5 (0 votes)

Tabs too difficult? Try these video lessons and learn fast.
                not entirely sure if this is right but it sounds right to me. sorry its not in 
intro,verse,chorus and end as im not sure which is which bit but it should be easy enough to 

standard tuning
* = palm mute
~ = hold note/let ring

e------------------------------------------------------------------------|
B------------------------------------------------------------------------|
G------------------------------------------------------------------------|
D---5-----3-----2--------------5-----3-----2-----------------------------| X2
A--3-3---3-3---3-3--5-3-2-3---3-3---3-3---3-3--5-3-2-3-------------------|
E-5---5-1---1-3---3--------3-5---5-1---1-3---3--------3------------------|

e--------------------------------------------------------------------------|
B--------------------------------------------------------------------------|
G--------------------------------------------------------------------------|
D-55555555-33333333-22222222----------55555555-33333333-22222222-----------|
A-33333333-33333333-33333333-53322222-33333333-33333333-33333333-533222-22-|
E-55555555-11111111-33333333-33333333-55555555-11111111-33333333-333333-33-|
  ******** ******** ******** ******** ******** ******** ******** ******

e--------------------------------------------------------------------------|
B--------------------------------------------------------------------------|
G--------------------------------------------------------------------------|
D-55555555-33333333-22222222----------55555555-33333333-22222222-----------|
A-33333333-33333333-33333333-53322222-33333333-33333333-33333333-53322222--|
E-55555555-11111111-33333333-33333333-55555555-11111111-33333333-33333333--|
   ** * **  ** * **  ** * **  ** * **  ** * **  ** * **  ** * **  ** * **

e-333333-11-00-----|
B-000000-00-00-11--|
G--------------00--|
D------------------|
A------------------|
E------------------|

                                                              |    X2   |
e-----------33-333333-----------11-111111-----------33-333333-|11-111111-|
B-11-111111-33-333333-11-111111-11-111111-11-111111-33-333333-|11-111111-|
G-00-000000-----------00-000000-22-222222-00-000000-----------|22-222222-|
D-22-222222-----------22-222222-33-333333-22-222222-----------|33-333333-|X2
A-33-333333-22-222222-33-333333-----------33-333333-22-222222-|----------|
E-----------33-333333-------------------------------33-333333-|----------|
                                                              |         |

e--------------------------------------------------------------------------|
B--------------------------------------------------------------------------|
G--------------------------------------------------------------------------|
D-55555555-33333333-22222222----------55555555-33333333-22222222-----------|
A-33333333-33333333-33333333-53322222-33333333-33333333-33333333-533222-22-|
E-55555555-11111111-33333333-33333333-55555555-11111111-33333333-333333-33-|
  ******** ******** ******** ******** ******** ******** ******** ******

e--------------------------------------------------------------------------|
B--------------------------------------------------------------------------|
G--------------------------------------------------------------------------|
D-55555555-33333333-22222222----------55555555-33333333-22222222-----------|
A-33333333-33333333-33333333-53322222-33333333-33333333-33333333-53322222--|
E-55555555-11111111-33333333-33333333-55555555-11111111-33333333-33333333--|
   ** * **  ** * **  ** * **  ** * **  ** * **  ** * **  ** * **  ** * **

e-333333-11-00-----|
B-000000-00-00-11--|
G--------------00--|
D------------------|
A------------------|
E------------------|

                                                              |    X2   |
e-----------33-333333-----------11-111111-----------33-333333-|11-111111-|
B-11-111111-33-333333-11-111111-11-111111-11-111111-33-333333-|11-111111-|
G-00-000000-----------00-000000-22-222222-00-000000-----------|22-222222-|
D-22-222222-----------22-222222-33-333333-22-222222-----------|33-333333-|X2
A-33-333333-22-222222-33-333333-----------33-333333-22-222222-|----------|
E-----------33-333333-------------------------------33-333333-|----------|
                                                              |         |

                      |                        X2                           |
e----111111----111111-|-------33-33-------11-11-------33-33-------11-11-1111|
B-11-111111-11-111111-|-11-11-33-33-11-11-11-11-11-11-33-33-11-11-11-11-1111|
G-00-222222-00-222222-|-00-00-------00-00-22-22-00-00-------00-00-22-22-2222|
D-22-333333-22-333333-|-22-22-------22-22-33-33-22-22-------22-22-33-33-3333|
A-33--------33--------|-33-33-22-22-33-33-------33-33-22-22-33-33-----------|
E---------------------|-------33-33-------------------33-33-----------------|
                      |                                                     |
e--------33333333--------11111111--------33333333--------1111111111111111-|
B-11-111-33333333-11-111-11111111-11-111-33333333-11-111-1111111111111111-|
G-00-000----------00-000-22222222-00-000----------00-000-2222222222222222-|
D-22-222----------22-222-33333333-22-222----------22-222-3333333333333333-|X2
A-33-333-22222222-33-333----------33-333-22222222-33-333------------------|
E--------33333333------------------------33333333-------------------------|

e--------1~-----|
B-1~-----1~-----|
G-0~-----2~-----|
D-2~-----3~-----|
A-3~------------|
E---------------|
            
Tabs too difficult? Try these video lessons and learn fast.




comments powered by Disqus
↑ Back to top | Tablatures and chords are parodies/interpretations of the original songs. You may use it for private study, scholarship, research or language learning purposes only