>
 >
Entertainment 1

Entertainment 1 Guitar Tabs

Rise Against - Entertainment 1 chords, tabs, tablatures, lyrics

Guitar lessons | Add/correct | Request | Top 50 tabs Artists:  A B C D E F G H I J K L M N O P Q R S T U V W X Y Z 0-9

Entertainment 1 Guitar Tabs – Rise Against

CD, Sheet music, Poster

Do you like Entertainment 1? Share with your friends now
Bass TabsBass Tabs v2ChordsChords v2TabsTabs v2Tabs v3Tabs v4Ukulele
----------------------------------------------------------------------------
                        ENTERTAINMENT - Rise Against
----------------------------------------------------------------------------
Tuning:
Guitar 1: Half-Step-Down [ Eb Ab Db Gb Bb Eb ]
Guitar 2: Half-Step-Down [ Eb Ab Db Gb Bb Eb ]


>>> Intro <<<                             >>> Interlude <<<

 |Guitar 1
E|------------------------------------------------------------------------|
B|------------------------------------------------------------------------|
G|----------------------------------------5-13-12-------------------8-7---|
D|---6-5---3-1-0-6-5--3-1-0-6-5--3-1-0----x-x--x--------------------x-x---|
A|-4-----------------------------------3--3-11-10-------------------6-5---|
E|------------------------------------------------------------------------|
 |
 |Guitar 2
E|------------------------------------------------------------------------|
B|------------------------------------------------------------------------|
G|----------------------------------------5-5-5-5-5-5-5-5-5-5-5-5-5-5-5-5-|
D|----------------------------------------5-5-5-5-5-5-5-5-5-5-5-5-5-5-5-5-|
A|----------------------------------------3-3-3-3-3-3-3-3-3-3-3-3-3-3-3-3-|
E|------------------------------------------------------------------------|



 |Guitar 1
E|------------------------------------------------------------------------|
B|------------------------------------------------------------------------|
G|-5-13-12-------------------8-7---6--13-12--------10-------8-7-----------|
D|-x-x--x--------------------x-x---x--x--x---------x--------x-x-----------|
A|-3-11-10-------------------6-5---4--11-10--------8--------6-5-----------|
E|------------------------------------------------------------------------|
 |
 |Guitar 2
E|------------------------------------------------------------------------|
B|------------------------------------------------------------------------|
G|-5-5-5-5-5-5-5-5-5-5-5-5-5-5-5-5-8-8-8-8-8-8-8-8-10-10-10-10-10-10-10-10|
D|-5-5-5-5-5-5-5-5-5-5-5-5-5-5-5-5-8-8-8-8-8-8-8-8-8--8--8--8--8--8--8--8-|
A|-3-3-3-3-3-3-3-3-3-3-3-3-3-3-3-3-6-6-6-6-6-6-6-6-8--8--8--8--8--8--8--8-|
E|------------------------------------------------------------------------|


                                    >>> Verse <<<
 |Guitar 1
E|------------------------------------------------------------------------|
B|------------------------------------------------------------------------|
G|-5----------------------------------------------------------------------|
D|-x--------------------------------5-5-5-5-5-5-5-5-5-5-5-5-5-5-5-5-------|
A|-3--------------------------------3-3-3-3-3-3-3-3-3-3-3-3-3-3-3-3-------|
E|------------------------------------------------------------------------|
 |                                  . . . . . . . . . . . . . . . . 
 |Guitar 2
E|------------------------------------------------------------------------|
B|------------------------------------------------------------------------|
G|-5-5-5-5-5-5-5-5-5-5-5-5-5-5-5-5--5+------------------------------------|
D|-5-5-5-5-5-5-5-5-5-5-5-5-5-5-5-5--5+------------------------------------|
A|-3-3-3-3-3-3-3-3-3-3-3-3-3-3-3-3--3+------------------------------------|
E|------------------------------------------------------------------------|



 |Guitar 1
E|------------------------------------------------------------------------|
B|------------------------------------------------------------------------|
G|------------------------------------------------------------------------|
D|-5-5-5-5-5-5-5-5-5-5-5-5-5-5-5-5-8-8-8-8-8-8-8-8-10-10-10-10-10-10-10-10|
A|-3-3-3-3-3-3-3-3-3-3-3-3-3-3-3-3-6-6-6-6-6-6-6-6-8--8--8--8--8--8--8--8-|
E|------------------------------------------------------------------------|
 | . . . . . . . . . . . . . . . . . . . . . . . . .  .  .  .  .  .  .  .
 |Guitar 2
E|------------------------------------------------------------------------|
B|------------------------------------------------------------------------|
G|------------------------------------------------------------------------|
D|------------------------------------------------------------------------|
A|------------------------------------------------------------------------|
E|------------------------------------------------------------------------|



 |Guitar 1
E|------------------------------------------------------------------------|
B|-----------------///////////////----------------------------------------|
G|-----------------//   Pick-   //----------------------------------------|
D|-5-5-5-5-5-5-5-5-//   slide   //-5-5-5-5-5-5-5-5-5-5-5-5-5-5-5-5--------|
A|-3-3-3-3-3-3-3-3-///////////////-3-3-3-3-3-3-3-3-3-3-3-3-3-3-3-3--------|
E|------------------------------------------------------------------------|
 | . . . . . . . .                 . . . . . . . . . . . . . . . .
 |Guitar 2
E|------------------------------------------------------------------------|
B|------------------------------------------------------------------------|
G|-5-5-5-5-5-5-5-5-5-5-5-5-5-5-5-5-5---------------------------5----------|
D|-5-5-5-5-5-5-5-5-5-5-5-5-5-5-5-5-5---------------------------5----------|
A|-3-3-3-3-3-3-3-3-3-3-3-3-3-3-3-3-3-3-3-3-3-3-3-3-3-3-3-3-3-3-3-3-3------|
E|------------------------------------------------------------------------|
                                     . . . . . . . . . . . . .   . .


 |Guitar 1
E|------------------------------------------------------------------------|
B|------------------------------------------------------------------------|
G|------------------------------------------------------------------------|
D|---------------------------------------------------------------3-5------|
A|---------------------------------------------------------------3-5------|
E|---------------------------------------------------------------1-3------|
 |
 |Guitar 2
E|------------------------------------------------------------------------|
B|------------------------------------------------------------------------|
G|-8---------8-----10---------10-----5-5-5-5-5-5-5-5-5-5-5-5-5-5-5-5------|
D|-8---------8-----10---------10-----5-5-5-5-5-5-5-5-5-5-5-5-5-5-5-5------|
A|-6-6-6-6-6-6-6-6-8--8-8-8-8-8--8-8-3-3-3-3-3-3-3-3-3-3-3-3-3-3-3-3------|
E|------------------------------------------------------------------------|
     . . . .   . .    . . . .    . .

>>> Chorus <<<

                                                1._________________________
 |Guitar 1                                     |
E|---------------------------------------------|--------------------------|
B|o--------------------------------------------|--------------------------|
G|------------------5-5-5-5-5-5-5-5-8-8-8-8-10-|-10-10-10-----5-----5-----|
D|--6-6-6-6-3-3-3-3-5-5-5-5-5-5-5-5-8-8-8-8-10-|-10-10-10-----5-----5-----|
A|o-6-6-6-6-3-3-3-3-3-3-3-3-3-3-3-3-6-6-6-6-8--|-8--8--8--3-3-3-3-3-3-----|
E|--4-4-4-4-1-1-1-1----------------------------|--------------------------|
 |                                                        . .   . .
 |Guitar 
E|---------------------------------------------|--------------------------|
B|o--------------------------------------------|--------------------------|
G|---------------------------------------------|--------------------------|
D|---------------------------------------------|--------------------------|
A|o--------------------------------------------|--------------------------|
E|---------------------------------------------|--------------------------|


 _______________ 2.
 |Guitar 1      |
E|--------------|---------------------------------|                       |
B|--------------|---------------------------------| Repeat the interlude  |
G|-----5-----5--|-5-5-5-5-5-5-5-5-5-5-5-5-5-5-5-5-|                       |
D|-----5-----5--|-5-5-5-5-5-5-5-5-5-5-5-5-5-5-5-5-|                       |
A|-3-3-5-3-3-3--|-3-3-3-3-3-3-3-3-3-3-3-3-3-3-3-3-|                       |
E|--------------|---------------------------------|                       |
 | . .   . .
 |Guitar 2
E|--------------|---------------------------------|                       |
B|--------------|-----------------///////////////-| Repeat the interlude  |
G|--------------|-----------------//   Pick-   //-|                       |
D|--------------|-----------------//   slide   //-|                       |
A|--------------|-----------------///////////////-|                       |
E|--------------|---------------------------------|                       |


>>> Verse <<<

 |Guitar 1
E|------------------------------------------------------------------------|
B|------------------------------------------------------------------------|
G|------------------------------------------------------------------------|
D|---------------5+----------------------3-1-0-6-5+-----------------------|
A|------------------------------------------------------------------------|
E|------------------------------------------------------------------------|
 |
 |Guitar 2
E|------------------------------------------------------------------------|
B|------------------------------------------------------------------------|
G|-5+------------5-------------------------5-----5------------------------|
D|-5+------------5-------------------------5-----5------------------------|
A|-3+------------3-3-3-3-3-3-3-3-3-3-3-3-3-3-3-3-3-3-3-3-3-3-3-3-3-3-3-3-3|
E|------------------------------------------------------------------------|
                   . . . . . . . . . . . .   . .   . . . . . . . . . . . . 


 |Guitar 1
E|------------------------------------------------------------------------|
B|------------------------------------------------------------------------|
G|------------------------------------------------------------------------|
D|-------3+--------1+--0----------------------------------------------3-5-|
A|-----------------------3+-------------------------------------------3-5-|
E|--------------------------------------------------------------------1-3-|
 |
 |Guitar 2
E|------------------------------------------------------------------------|
B|------------------------------------------------------------------------|
G|-3-----8---------8-----10---------------5-5-5-5-5-5-5-5-5-5-5-5-5-5-5-5-|
D|-3-----8---------8-----10---------------5-5-5-5-5-5-5-5-5-5-5-5-5-5-5-5-|
A|-5-3-3-6-6-6-6-6-6-6-6-8--8-8-8-8-8-8-8-3-3-3-3-3-3-3-3-3-3-3-3-3-3-3-3-|
E|------------------------------------------------------------------------|
 |   . .   . . . .   . .    . . . . . . .


repeat >>>Chorus<<<


>>> Bridge <<<

 |Guitar 1
E|------------------------------------------------------------------------|
B|------------------------------------------------------------------------|
G|-5--5-5--5-5-5-3--8-7-5--5-5---5-5-5-3--8-7-8-10-10-10-12-12--12-13-12--|
D|-x--x-x--x-x-x-x--x-x-x--x-x---x-x-x-x--x-x-x-x--x--x--x--x---x--x--x---|
A|-3--3-3--3-3-3-1--6-5-3--3-3---3-3-3-1--6-5-6-8--8--8--10-10--10-11-10--|
E|------------------------------------------------------------------------|
 |
 |Guitar 2
E|------------------------------------------------------------------------|
B|------------------------------------------------------------------------|
G|-5--5-5--5-5-5+---5---5--5-5-5-5-5-5+---5-------------------------------|
D|-5--5-5--5-5-5+---5---5--5-5-5-5-5-5+---5-----4--4--4--4--4---4--4--4---|
A|-3--3-3--3-3-3+---3---3--3-3-3-3-3-3+---3-----4--4--4--4--4---4--4--4---|
E|----------------------------------------------6--6--6--6--6---6--6--6---|



 |Guitar 1
E|------------------------------------------------------------------------|
B|------------------------------------------------------------------------|
G|-12-12-12-12-10-8-12-11---5--5-5--5-5-5-3--8-7-5--5-5---5-5-5-3--8--5-5-|
D|-x--x--x--x--x--x-x--x----x--x-x--x-x-x-x--x-x-x--x-x---x-x-x-x--x--x-x-|
A|-10-10-10-10-8--6-11-10---3--3-3--3-3-3-1--6-5-3--3-3---3-3-3-1--6--3-3-|
E|------------------------------------------------------------------------|
 |
 |Guitar 2
E|------------------------------------------------------------------------|
B|------------------------------------------------------------------------|
G|--------------------------5--5-5--5-5-5+---5---5--5-5-5-5-5-5+----------|
D|-4--4--4--4--4--4-4--4----5--5-5--5-5-5+---5---5--5-5-5-5-5-5+---4--4-4-|
A|-4--4--4--4--4--4-4--4----3--3-3--3-3-3+---3---3--3-3-3-3-3-3+---4--4-4-|
E|-6--6--6--6--6--6-6--6-------------------------------------------6--6-6-|



 |Guitar 1
E|------------------------------------------------------------------------|
B|------------------------------------------------------------------------|
G|-3-3-3--3-5-7-8--8-8--10-10--10-10--10--3-------------------------------|
D|-x-x-x--x-x-x-x--x-x--x--x---x--x---x---3-3-3-3-3-3-3-3-3-3-3-3-3-3-3-3-|
A|-1-1-1--1-3-5-6--6-6--8--8---8--8---8---1-1-1-1-1-1-1-1-1-1-1-1-1-1-1-1-|
E|------------------------------------------------------------------------|
 |                                          . . . . . . . . . . . . . . .
 |Guitar 2
E|------------------------------------------------------------------------|
B|------------------------------------------------------------------------|
G|------------------------------------------------------------------------|
D|-4-4-4--4-4-4-4--4-4--4-4----4--4---4-----------------------------------|
A|-4-4-4--4-4-4-4--4-4--4-4----4--4---4-----------------------------------|
E|-6-6-6--6-6-6-6--6-6--6-6----6--6---6-----------------------------------|



 |Guitar 1
E|------------------------------------------------------------------------|
B|------------------------------------------------------------------------|
G|------------------------------------------------------------------------|
D|-3-------------------------------6------------------------------8-10----|
A|-3-3-3-3-3-3-3-3-3-3-3-3-3-3-3-3-6-6-6-6-6-6-6-6-6-6-6-6-6-6-6--8-10----|
E|-1-1-1-1-1-1-1-1-1-1-1-1-1-1-1-1-4-4-4-4-4-4-4-4-4-4-4-4-4-4-4--6-8-----|
 |   . . . . . . . . . . . . . . .   . . . . . . . . . . . . . .
 |Guitar 2
E|------------------------------------------------------------------------|
B|------------------------------------------------------------------------|
G|------------------------------------------------------------------------|
D|------------------------------------------------------------------------|
A|------------------------------------------------------------------------|
E|------------------------------------------------------------------------|

Kicks in at "as we are true!"
                    ^

 |Guitar 1 
E|--------------------------------------|                                 |
B|--------------------------------------| Now play the chorus again       |
G|-5-------------------5-5-5-5-5-5-5-5--|                                 | 
D|-5---5-5-5-5-5-5-5-5-5-5-5-5-5-5-5-5--|                                 |
A|-3---3-3-3-3-3-3-3-3-3-3-3-3-3-3-3-3--|                                 |
E|--------------------------------------|                                 |
 |     . . . . . . . .
 |Guitar 2
E|--------------------------------------|                                 |
B|--------------------------------------| Now play the chorus again       |
G|--------------------------------------|                                 |
D|--------------------------------------|                                 |
A|--------------------------------------|                                 |
E|--------------------------------------|                                 |

then the interlude again, but this time, it ends like this:

 |Guitar 1
E|------------------------------------------------------------------------|
B|------------------------------------------------------------------------|
G|-5-13-12----8\7--7\5--5-------------------------------------------------|
D|-x-x--x-----x-x--x-x--x-------------------------------------------------|
A|-3-11-10----6\5--5\3--3-------------------------------------------------|
E|------------------------------------------------------------------------|
 |
 |Guitar 2
E|------------------------------------------------------------------------|
B|------------------------------------------------------------------------|
G|-8----------------------------------------------------------------------|
D|-8-------3+-------------------------------------------------------------|
A|-6-------3+-------------------------------------------------------------|
E|---------1+-------------------------------------------------------------|

---Key---
+ - Let Ring
. - Palm Mute





Comments


Popular Rise Against tabs & chords
But Tonight We Dance Bass Tabs
Endgame Bass Tabs
Roadside 2 Chords
The Strength To Go On Chords
Behind Closed Doors Tabs
Broken Mirrors 3 Tabs
From Heads Unworthy Intro Tabs
Like The Angel 2 Tabs
Stained Glass And Marble 1 Tabs
Re-education Ukulele


Song lyrics



↑ Back to top | Tablatures and chords are parodies/interpretations of the original songs. You may use it for private study, scholarship, research or language learning purposes only
© 2014 AZChords.com Contact us | Privacy policy | DMCA | Add/correct tabs | Request tabs | Top 50 tabs