>
 >
Blood Red White And Blue 1

Blood Red White And Blue 1 Guitar Tabs

Rise Against - Blood Red White And Blue 1 chords, tabs, tablatures, lyrics

Guitar lessons | Add/correct | Request | Top 50 tabs Artists:  A B C D E F G H I J K L M N O P Q R S T U V W X Y Z 0-9

Blood Red White And Blue 1 Guitar Tabs – Rise Against

CD, Sheet music, Poster

Do you like Blood Red White And Blue 1? Share with your friends now
Bass TabsBass Tabs v2ChordsTabsTabs v2Tabs v3Tabs v4Ukulele
|                                          |
|~~Blood Red White and Blue- Rise Against~~|
|__________________________________________| 

        Tuning: Half Step down

Note- The solo sounds pretty good, I still need to tweak it a little, however.



Intro: (x2)
eb|----------------------------------------------------------------------------------|
Bb|----------------------------------------------------------------------------------|
Gb|-9---9-9---------9---9-9-11/10\11-12-12-12-12-12-12-12-12-14-14-14-14-11-11-11-11-|
Db|-9---9-9-9---9-9-9---9-9----------12-12-12-12-12-12-12-12-14-14-14-14-11-11-11-11-|
Ab|-7---7-7-9---9-9-7---7-7----------10-10-10-10-10-10-10-10-12-12-12-12-9--9--9--9--|
Eb|---------7---7-7------------------------------------------------------------------|
 pm     . .     . .     . .

eb|----------------------------------------------------------------------------------|
Bb|----------------------------------------------------------------------------------|
Gb|-9---9-9---------9---9-9-11/10\11-12-12-12-12-12-12-12-12-11-11-11-11-------------|
Db|-9---9-9-9---9-9-9---9-9----------12-12-12-12-12-12-12-12-11-11-11-11-12-12-12-12-|
Ab|-7---7-7-9---9-9-7---7-7----------10-10-10-10-10-10-10-10-9--9--9--9--12-12-12-12-|
Eb|---------7---7-7------------------------------------------------------10-10-10-10-|
 pm     . .     . .     . .

End on:
eb|----------|
Bb|----------|
Gb|-9--------|
Db|-9--------|
Ab|-7--------|
Eb|----------|

Pre-Verse: (Same as Verse) (1x)
eb|-------------------------------------------------|
Bb|-------------------------------------------------|
Gb|-4--7--9--9-9--9-9--9-9--9--9--5--5-5--5-5--5-5--|
Db|-4--7--9--9-9--9-9--9-9--9--9--5--5-5--5-5--5-5--|
Ab|-2--5--7--7-7--7-7--7-7--7--7--3--3-3--3-3--3-3--|
Eb|-------------------------------------------------|

eb|--------------------------------------------------------|
Bb|--------------------------------------------------------|
Gb|-4--7--9--9-9--9-9--9-9--9--9--12--12-12--12-12--12-12--|
Db|-4--7--9--9-9--9-9--9-9--9--9--12--12-12--12-12--12-12--|
Ab|-2--5--7--7-7--7-7--7-7--7--7--10--10-10--10-10--10-10--|
Eb|--------------------------------------------------------|

eb|-------------------------------------------------|
Bb|-------------------------------------------------|
Gb|-4--7--9--9-9--9-9--9-9--9--9--5--5-5--5-5--5-5--|
Db|-4--7--9--9-9--9-9--9-9--9--9--5--5-5--5-5--5-5--|
Ab|-2--5--7--7-7--7-7--7-7--7--7--3--3-3--3-3--3-3--|
Eb|-------------------------------------------------|

eb|-------------------------------------------------|-----------|
Bb|-------------------------------------------------|-----------|
Gb|-5--5--7--7-7--7-7--7-7--7--7--7--7-7--7-7--7-7--|-7---------|
Db|-5--5--7--7-7--7-7--7-7--7--7--7--7-7--7-7--7-7--|-7---------|
Ab|-3--3--5--5-5--5-5--5-5--5--5--5--5-5--5-5--5-5--|-5---------|
Eb|-------------------------------------------------|-----------|

Verse: (x2)
eb|-------------------------------------------------|
Bb|-------------------------------------------------|
Gb|-4--7--9--9-9--9-9--9-9--9--9--5--5-5--5-5--5-5--|
Db|-4--7--9--9-9--9-9--9-9--9--9--5--5-5--5-5--5-5--|
Ab|-2--5--7--7-7--7-7--7-7--7--7--3--3-3--3-3--3-3--|
Eb|-------------------------------------------------|

eb|--------------------------------------------------------|
Bb|--------------------------------------------------------|
Gb|-4--7--9--9-9--9-9--9-9--9--9--12--12-12--12-12--12-12--|
Db|-4--7--9--9-9--9-9--9-9--9--9--12--12-12--12-12--12-12--|
Ab|-2--5--7--7-7--7-7--7-7--7--7--10--10-10--10-10--10-10--|
Eb|--------------------------------------------------------|

eb|-------------------------------------------------|
Bb|-------------------------------------------------|
Gb|-4--7--9--9-9--9-9--9-9--9--9--5--5-5--5-5--5-5--|
Db|-4--7--9--9-9--9-9--9-9--9--9--5--5-5--5-5--5-5--|
Ab|-2--5--7--7-7--7-7--7-7--7--7--3--3-3--3-3--3-3--|
Eb|-------------------------------------------------|

eb|-------------------------------------------------|-----------|
Bb|-------------------------------------------------|-----------|
Gb|-5--5--7--7-7--7-7--7-7--7--7--7--7-7--7-7--7-7--|-7---------|
Db|-5--5--7--7-7--7-7--7-7--7--7--7--7-7--7-7--7-7--|-7---------|
Ab|-3--3--5--5-5--5-5--5-5--5--5--5--5-5--5-5--5-5--|-5---------|
Eb|-------------------------------------------------|-----------|


Chorus: (x2)
eb|-------------------------|------------------------------------|
Bb|-------------------------|------------------------------------|
Gb|-12-12-12-12-12-12-11-11-|-------------------11-11------------|
Db|-12-12-12-12-12-12-11-11-|-12-12-12-12-12-12-11-11------------|
Ab|-10-10-10-10-10-10-9--9--|-12-12-12-12-12-12-9--9-------------|
Eb|-------------------------|-10-10-10-10-10-10------------------|
   Play x3                   Play x1

eb|-------------------------|--------------------------|
Bb|-------------------------|--------------------------|
Gb|-12-12-12-12-12-12-11-11-|-16---14---11---12---11---|
Db|-12-12-12-12-12-12-11-11-|--------------------------|
Ab|-10-10-10-10-10-10-9--9--|-14---12---9----10---9----|
Eb|-------------------------|--------------------------|
   Play x3                   Play x1

End on:
eb|----------|
Bb|----------|
Gb|-9--------|
Db|-9--------|
Ab|-7--------|
Eb|----------|

Pre-Verse: (Same as Verse) (1x)
eb|-------------------------------------------------|
Bb|-------------------------------------------------|
Gb|-4--7--9--9-9--9-9--9-9--9--9--5--5-5--5-5--5-5--|
Db|-4--7--9--9-9--9-9--9-9--9--9--5--5-5--5-5--5-5--|
Ab|-2--5--7--7-7--7-7--7-7--7--7--3--3-3--3-3--3-3--|
Eb|-------------------------------------------------|

eb|--------------------------------------------------------|
Bb|--------------------------------------------------------|
Gb|-4--7--9--9-9--9-9--9-9--9--9--12--12-12--12-12--12-12--|
Db|-4--7--9--9-9--9-9--9-9--9--9--12--12-12--12-12--12-12--|
Ab|-2--5--7--7-7--7-7--7-7--7--7--10--10-10--10-10--10-10--|
Eb|--------------------------------------------------------|

eb|-------------------------------------------------|
Bb|-------------------------------------------------|
Gb|-4--7--9--9-9--9-9--9-9--9--9--5--5-5--5-5--5-5--|
Db|-4--7--9--9-9--9-9--9-9--9--9--5--5-5--5-5--5-5--|
Ab|-2--5--7--7-7--7-7--7-7--7--7--3--3-3--3-3--3-3--|
Eb|-------------------------------------------------|

eb|-------------------------------------------------|-----------|
Bb|-------------------------------------------------|-----------|
Gb|-5--5--7--7-7--7-7--7-7--7--7--7--7-7--7-7--7-7--|-7---------|
Db|-5--5--7--7-7--7-7--7-7--7--7--7--7-7--7-7--7-7--|-7---------|
Ab|-3--3--5--5-5--5-5--5-5--5--5--5--5-5--5-5--5-5--|-5---------|
Eb|-------------------------------------------------|-----------|

Verse: (x2)
eb|-------------------------------------------------|
Bb|-------------------------------------------------|
Gb|-4--7--9--9-9--9-9--9-9--9--9--5--5-5--5-5--5-5--|
Db|-4--7--9--9-9--9-9--9-9--9--9--5--5-5--5-5--5-5--|
Ab|-2--5--7--7-7--7-7--7-7--7--7--3--3-3--3-3--3-3--|
Eb|-------------------------------------------------|

eb|--------------------------------------------------------|
Bb|--------------------------------------------------------|
Gb|-4--7--9--9-9--9-9--9-9--9--9--12--12-12--12-12--12-12--|
Db|-4--7--9--9-9--9-9--9-9--9--9--12--12-12--12-12--12-12--|
Ab|-2--5--7--7-7--7-7--7-7--7--7--10--10-10--10-10--10-10--|
Eb|--------------------------------------------------------|

eb|-------------------------------------------------|
Bb|-------------------------------------------------|
Gb|-4--7--9--9-9--9-9--9-9--9--9--5--5-5--5-5--5-5--|
Db|-4--7--9--9-9--9-9--9-9--9--9--5--5-5--5-5--5-5--|
Ab|-2--5--7--7-7--7-7--7-7--7--7--3--3-3--3-3--3-3--|
Eb|-------------------------------------------------|

eb|-------------------------------------------------|-----------|
Bb|-------------------------------------------------|-----------|
Gb|-5--5--7--7-7--7-7--7-7--7--7--7--7-7--7-7--7-7--|-7---------|
Db|-5--5--7--7-7--7-7--7-7--7--7--7--7-7--7-7--7-7--|-7---------|
Ab|-3--3--5--5-5--5-5--5-5--5--5--5--5-5--5-5--5-5--|-5---------|
Eb|-------------------------------------------------|-----------|

Chorus: (x2)
eb|-------------------------|------------------------------------|
Bb|-------------------------|------------------------------------|
Gb|-12-12-12-12-12-12-11-11-|-------------------11-11------------|
Db|-12-12-12-12-12-12-11-11-|-12-12-12-12-12-12-11-11------------|
Ab|-10-10-10-10-10-10-9--9--|-12-12-12-12-12-12-9--9-------------|
Eb|-------------------------|-10-10-10-10-10-10------------------|
   Play x3                   Play x1

eb|-------------------------|--------------------------|
Bb|-------------------------|--------------------------|
Gb|-12-12-12-12-12-12-11-11-|-16---14---11---12---11---|
Db|-12-12-12-12-12-12-11-11-|--------------------------|
Ab|-10-10-10-10-10-10-9--9--|-14---12---9----10---9----|
Eb|-------------------------|--------------------------|
   Play x3                   Play x1

End on:
eb|----------|
Bb|----------|
Gb|-9--------|
Db|-9--------|
Ab|-7--------|
Eb|----------|



Bridge: (Guitar 1)
eb|-----------------------------------|
Bb|-----------------------------------|
Gb|-9-9-10-10-9-9-7-7-9-9-7-7-5-5-7-7-|x12
Db|-9-9-10-10-9-9-7-7-9-9-7-7-5-5-7-7-|
Ab|-7-7-8--8--7-7-5-5-7-7-5-5-3-3-5-5-|
Eb|-----------------------------------|
  PM. . .  .  . . . . . . . . . . . .

Bridge: (Guitar 2)
eb|----------|
Bb|----------|
Gb|-5--------|
Db|-5--------| (After Guitar 1 plays 2 times, 6 times and 10 times)
Ab|-3--------|
Eb|----------|

eb|---------------------------------|
Bb|---------------------------------|
Gb|-5-5-5-5-5-5-5-5-7-7-7-7-7-7-7-7-| (After Guitar 1 plays 
Db|-5-5-5-5-5-5-5-5-7-7-7-7-7-7-7-7-| 3 times, 7 times, and 11 times)
Ab|-3-3-3-3-3-3-3-3-5-5-5-5-5-5-5-5-|
Eb|---------------------------------|

End on:
eb|------|
Bb|------|
Gb|------|
Db|-9----|
Ab|-9----|
Eb|-7----|

Solo:
eb|-----------------------------------------------------------------------------------|
Bb|-17-17--17-17-17--17-17/15--13--12h13-13--12h13p12-10--13--12h13p12-10-------------|
Gb|------------------------------------------------------------------------9--11--12--|
Db|-----------------------------------------------------------------------------------|
Ab|-----------------------------------------------------------------------------------|
Eb|-----------------------------------------------------------------------------------|

eb|--------------------------------15-----14-15h17--15-14-15--14h15-17--|
Bb|-13p12--10------------17-17--17----17--------------------------------|
Gb|------------12--9--7-------------------------------------------------|
Db|---------------------------------------------------------------------|
Ab|---------------------------------------------------------------------|
Eb|---------------------------------------------------------------------|

eb|-15-14-15--17-15-14-----------------------------------------------------|
Bb|---------------------17--15--12--12h13p12-10/12-12h13p12-10/12-12h13p12-|
Gb|------------------------------------------------------------------------|
Db|------------------------------------------------------------------------|
Ab|------------------------------------------------------------------------|
Eb|------------------------------------------------------------------------|

eb|--------------------------------------------------|
Bb|-10/12-12h13p12-10/12-12h13p12--------------------|
Gb|--------------------------------9---9/7--4---9----|
Db|--------------------------------7---7/5--2---7----|
Ab|--------------------------------------------------|
Eb|--------------------------------------------------|





Comments


Popular Rise Against tabs & chords
Black Masks And Gasoline 2 Bass Tabs
Prayer Of The Refugee 2 Chords
Roadside 5 Chords
Anywhere But Here 6 Tabs
Drones 2 Tabs
Entertainment Tabs
From Heads Unworthy Tabs
Survive 1 Tabs
Give It All Ukulele
Prayer Of The Refugee 2 Ukulele


Song lyrics



↑ Back to top | Tablatures and chords are parodies/interpretations of the original songs. You may use it for private study, scholarship, research or language learning purposes only
© 2014 AZChords.com Contact us | Privacy policy | DMCA | Add/correct tabs | Request tabs | Top 50 tabs